  0
SECTION
  2
HEADER
  9
$ACADVER
  1
AC1021
  9
$ACADMAINTVER
 70
    26
  9
$DWGCODEPAGE
  3
ANSI_1252
  9
$LASTSAVEDBY
  1
basyouni
  9
$CUSTOMPROPERTYTAG
  1
AmdtFileType
  9
$CUSTOMPROPERTY
  1
84
  9
$INSBASE
 10
0.0
 20
0.0
 30
0.0
  9
$EXTMIN
 10
-0.0000000000001146
 20
15.0
 30
0.0
  9
$EXTMAX
 10
593.0000000000001
 20
435.0000000000001
 30
0.0
  9
$LIMMIN
 10
0.0
 20
0.0
  9
$LIMMAX
 10
625.0
 20
450.0
  9
$ORTHOMODE
 70
     1
  9
$REGENMODE
 70
     1
  9
$FILLMODE
 70
     1
  9
$QTEXTMODE
 70
     0
  9
$MIRRTEXT
 70
     1
  9
$LTSCALE
 40
1.0
  9
$ATTMODE
 70
     1
  9
$TEXTSIZE
 40
2.5
  9
$TRACEWID
 40
1.0
  9
$TEXTSTYLE
  7
Stil1
  9
$CLAYER
  8
0
  9
$CELTYPE
  6
BYLAYER
  9
$CECOLOR
 62
   256
  9
$CELTSCALE
 40
10.0
  9
$DISPSILH
 70
     0
  9
$DIMSCALE
 40
1.0
  9
$DIMASZ
 40
3.5
  9
$DIMEXO
 40
0.0
  9
$DIMDLI
 40
7.0
  9
$DIMRND
 40
0.0
  9
$DIMDLE
 40
0.0
  9
$DIMEXE
 40
1.25
  9
$DIMTP
 40
0.0
  9
$DIMTM
 40
0.0
  9
$DIMTXT
 40
3.5
  9
$DIMCEN
 40
0.0
  9
$DIMTSZ
 40
0.0
  9
$DIMTOL
 70
     0
  9
$DIMLIM
 70
     0
  9
$DIMTIH
 70
     0
  9
$DIMTOH
 70
     0
  9
$DIMSE1
 70
     0
  9
$DIMSE2
 70
     0
  9
$DIMTAD
 70
     1
  9
$DIMZIN
 70
     8
  9
$DIMBLK
  1

  9
$DIMASO
 70
     1
  9
$DIMSHO
 70
     1
  9
$DIMPOST
  1

  9
$DIMAPOST
  1

  9
$DIMALT
 70
     0
  9
$DIMALTD
 70
     2
  9
$DIMALTF
 40
0.0394
  9
$DIMLFAC
 40
0.5
  9
$DIMTOFL
 70
     1
  9
$DIMTVP
 40
1.0
  9
$DIMTIX
 70
     0
  9
$DIMSOXD
 70
     0
  9
$DIMSAH
 70
     0
  9
$DIMBLK1
  1

  9
$DIMBLK2
  1

  9
$DIMSTYLE
  2
ISO-25
  9
$DIMCLRD
 70
   256
  9
$DIMCLRE
 70
   256
  9
$DIMCLRT
 70
   256
  9
$DIMTFAC
 40
1.0
  9
$DIMGAP
 40
1.5
  9
$DIMJUST
 70
     0
  9
$DIMSD1
 70
     0
  9
$DIMSD2
 70
     0
  9
$DIMTOLJ
 70
     1
  9
$DIMTZIN
 70
     8
  9
$DIMALTZ
 70
     0
  9
$DIMALTTZ
 70
     0
  9
$DIMUPT
 70
     1
  9
$DIMDEC
 70
     4
  9
$DIMTDEC
 70
     4
  9
$DIMALTU
 70
     2
  9
$DIMALTTD
 70
     2
  9
$DIMTXSTY
  7
STANDARD
  9
$DIMAUNIT
 70
     0
  9
$DIMADEC
 70
     0
  9
$DIMALTRND
 40
0.0
  9
$DIMAZIN
 70
     0
  9
$DIMDSEP
 70
    46
  9
$DIMATFIT
 70
     3
  9
$DIMFRAC
 70
     0
  9
$DIMLDRBLK
  1

  9
$DIMLUNIT
 70
     2
  9
$DIMLWD
 70
    -2
  9
$DIMLWE
 70
    -2
  9
$DIMTMOVE
 70
     0
  9
$DIMFXL
 40
1.0
  9
$DIMFXLON
 70
     0
  9
$DIMJOGANG
 40
0.7853981633974483
  9
$DIMTFILL
 70
     0
  9
$DIMTFILLCLR
 70
     0
  9
$DIMARCSYM
 70
     0
  9
$DIMLTYPE
  6

  9
$DIMLTEX1
  6

  9
$DIMLTEX2
  6

  9
$LUNITS
 70
     2
  9
$LUPREC
 70
     4
  9
$SKETCHINC
 40
1.0
  9
$FILLETRAD
 40
0.0
  9
$AUNITS
 70
     0
  9
$AUPREC
 70
     0
  9
$MENU
  1
.
  9
$ELEVATION
 40
0.0
  9
$PELEVATION
 40
0.0
  9
$THICKNESS
 40
0.0
  9
$LIMCHECK
 70
     0
  9
$CHAMFERA
 40
10.0
  9
$CHAMFERB
 40
10.0
  9
$CHAMFERC
 40
0.0
  9
$CHAMFERD
 40
0.0
  9
$SKPOLY
 70
     0
  9
$TDCREATE
 40
2450382.432057130
  9
$TDUCREATE
 40
2450382.348723796
  9
$TDUPDATE
 40
2455288.609160996
  9
$TDUUPDATE
 40
2455288.525827662
  9
$TDINDWG
 40
0.7296310185
  9
$TDUSRTIMER
 40
0.7296310185
  9
$USRTIMER
 70
     1
  9
$ANGBASE
 50
0.0
  9
$ANGDIR
 70
     0
  9
$PDMODE
 70
     0
  9
$PDSIZE
 40
0.0
  9
$PLINEWID
 40
0.0
  9
$SPLFRAME
 70
     0
  9
$SPLINETYPE
 70
     6
  9
$SPLINESEGS
 70
     8
  9
$HANDSEED
  5
30B4
  9
$SURFTAB1
 70
     6
  9
$SURFTAB2
 70
     6
  9
$SURFTYPE
 70
     6
  9
$SURFU
 70
     6
  9
$SURFV
 70
     6
  9
$UCSBASE
  2

  9
$UCSNAME
  2

  9
$UCSORG
 10
0.0
 20
0.0
 30
0.0
  9
$UCSXDIR
 10
1.0
 20
0.0
 30
0.0
  9
$UCSYDIR
 10
0.0
 20
1.0
 30
0.0
  9
$UCSORTHOREF
  2

  9
$UCSORTHOVIEW
 70
     0
  9
$UCSORGTOP
 10
0.0
 20
0.0
 30
0.0
  9
$UCSORGBOTTOM
 10
0.0
 20
0.0
 30
0.0
  9
$UCSORGLEFT
 10
0.0
 20
0.0
 30
0.0
  9
$UCSORGRIGHT
 10
0.0
 20
0.0
 30
0.0
  9
$UCSORGFRONT
 10
0.0
 20
0.0
 30
0.0
  9
$UCSORGBACK
 10
0.0
 20
0.0
 30
0.0
  9
$PUCSBASE
  2

  9
$PUCSNAME
  2

  9
$PUCSORG
 10
0.0
 20
0.0
 30
0.0
  9
$PUCSXDIR
 10
1.0
 20
0.0
 30
0.0
  9
$PUCSYDIR
 10
0.0
 20
1.0
 30
0.0
  9
$PUCSORTHOREF
  2

  9
$PUCSORTHOVIEW
 70
     0
  9
$PUCSORGTOP
 10
0.0
 20
0.0
 30
0.0
  9
$PUCSORGBOTTOM
 10
0.0
 20
0.0
 30
0.0
  9
$PUCSORGLEFT
 10
0.0
 20
0.0
 30
0.0
  9
$PUCSORGRIGHT
 10
0.0
 20
0.0
 30
0.0
  9
$PUCSORGFRONT
 10
0.0
 20
0.0
 30
0.0
  9
$PUCSORGBACK
 10
0.0
 20
0.0
 30
0.0
  9
$USERI1
 70
     0
  9
$USERI2
 70
     0
  9
$USERI3
 70
     0
  9
$USERI4
 70
     0
  9
$USERI5
 70
     0
  9
$USERR1
 40
0.0
  9
$USERR2
 40
0.0
  9
$USERR3
 40
0.0
  9
$USERR4
 40
0.0
  9
$USERR5
 40
0.0
  9
$WORLDVIEW
 70
     1
  9
$SHADEDGE
 70
     3
  9
$SHADEDIF
 70
    70
  9
$TILEMODE
 70
     1
  9
$MAXACTVP
 70
    16
  9
$PINSBASE
 10
0.0
 20
0.0
 30
0.0
  9
$PLIMCHECK
 70
     0
  9
$PEXTMIN
 10
1.000000000000000E+20
 20
1.000000000000000E+20
 30
1.000000000000000E+20
  9
$PEXTMAX
 10
-1.000000000000000E+20
 20
-1.000000000000000E+20
 30
-1.000000000000000E+20
  9
$PLIMMIN
 10
0.0
 20
0.0
  9
$PLIMMAX
 10
420.0
 20
297.0
  9
$UNITMODE
 70
     0
  9
$VISRETAIN
 70
     0
  9
$PLINEGEN
 70
     0
  9
$PSLTSCALE
 70
     0
  9
$TREEDEPTH
 70
  3020
  9
$CMLSTYLE
  2
STANDARD
  9
$CMLJUST
 70
     0
  9
$CMLSCALE
 40
1.0
  9
$PROXYGRAPHICS
 70
     1
  9
$MEASUREMENT
 70
     0
  9
$CELWEIGHT
370
    -1
  9
$ENDCAPS
280
     0
  9
$JOINSTYLE
280
     0
  9
$LWDISPLAY
290
     0
  9
$INSUNITS
 70
     0
  9
$HYPERLINKBASE
  1

  9
$STYLESHEET
  1
Zeich.ctb
  9
$XEDIT
290
     1
  9
$CEPSNTYPE
380
     0
  9
$PSTYLEMODE
290
     1
  9
$FINGERPRINTGUID
  2
{B3482377-27F0-11D5-8922-0010B575C243}
  9
$VERSIONGUID
  2
{2D60F3AA-D552-4C0F-B615-6C6BFFDAE686}
  9
$EXTNAMES
290
     1
  9
$PSVPSCALE
 40
0.0
  9
$OLESTARTUP
290
     0
  9
$SORTENTS
280
    96
  9
$INDEXCTL
280
     0
  9
$HIDETEXT
280
     0
  9
$XCLIPFRAME
290
     0
  9
$HALOGAP
280
     0
  9
$OBSCOLOR
 70
   257
  9
$OBSLTYPE
280
     0
  9
$INTERSECTIONDISPLAY
280
     0
  9
$INTERSECTIONCOLOR
 70
   257
  9
$DIMASSOC
280
     1
  9
$PROJECTNAME
  1

  9
$CAMERADISPLAY
290
     0
  9
$LENSLENGTH
 40
50.0
  9
$CAMERAHEIGHT
 40
0.0
  9
$STEPSPERSEC
 40
2.0
  9
$STEPSIZE
 40
6.0
  9
$3DDWFPREC
 40
2.0
  9
$PSOLWIDTH
 40
0.25
  9
$PSOLHEIGHT
 40
4.0
  9
$LOFTANG1
 40
1.570796326794896
  9
$LOFTANG2
 40
1.570796326794896
  9
$LOFTMAG1
 40
0.0
  9
$LOFTMAG2
 40
0.0
  9
$LOFTPARAM
 70
     7
  9
$LOFTNORMALS
280
     1
  9
$LATITUDE
 40
37.795
  9
$LONGITUDE
 40
-122.394
  9
$NORTHDIRECTION
 40
0.0
  9
$TIMEZONE
 70
 -8000
  9
$LIGHTGLYPHDISPLAY
280
     1
  9
$TILEMODELIGHTSYNCH
280
     1
  9
$CMATERIAL
347
2D27
  9
$SOLIDHIST
280
     1
  9
$SHOWHIST
280
     1
  9
$DWFFRAME
280
     2
  9
$DGNFRAME
280
     0
  9
$REALWORLDSCALE
290
     1
  9
$INTERFERECOLOR
 62
     1
  9
$INTERFEREOBJVS
345
2D34
  9
$INTERFEREVPVS
346
2D31
  9
$CSHADOW
280
     0
  9
$SHADOWPLANELOCATION
 40
0.0
  0
ENDSEC
  0
SECTION
  2
CLASSES
  0
CLASS
  1
ACMESTATEMGR
  2
AcMeStateMgr
  3
AcMeServices
 90
     1024
 91
        1
280
     0
281
     0
  0
CLASS
  1
ACMESCOPE
  2
AcMeScope
  3
AcMeServices
 90
     1024
 91
        1
280
     0
281
     0
  0
CLASS
  1
ACMECOMMANDHISTORY
  2
AcMeCommandHistory
  3
AcMeServices
 90
     1024
 91
        1
280
     0
281
     0
  0
CLASS
  1
ACRFINSADJUSTERMGR
  2
AcRfInsAdjusterMgr
  3
AcMeServices
 90
     1024
 91
        1
280
     0
281
     0
  0
CLASS
  1
ACMEDRAWINGMAN
  2
AcMeDrawingMan
  3
AcMeServices
 90
     1024
 91
        1
280
     0
281
     0
  0
CLASS
  1
AMATTR
  2
AcMeAttribute
  3
AcMeServices
 90
     1024
 91
        0
280
     0
281
     0
  0
CLASS
  1
ACMEBOMCOLUMN
  2
AcMeBOMColumn
  3
AcMeServices
 90
     1024
 91
        0
280
     0
281
     0
  0
CLASS
  1
ACMEBOMCONF
  2
AcMeBOMConf
  3
AcMeServices
 90
     1024
 91
        0
280
     0
281
     0
  0
CLASS
  1
ACMEBOMTABLE
  2
AcMeBOMTable
  3
AcMeServices
 90
     1024
 91
        0
280
     0
281
     0
  0
CLASS
  1
ACMEBOMENTRY
  2
AcMeBOMEntry
  3
AcMeServices
 90
     1024
 91
        0
280
     0
281
     0
  0
CLASS
  1
ACMEVIEW
  2
AcMeView
  3
AcMeServices
 90
     1024
 91
        0
280
     0
281
     0
  0
CLASS
  1
DICTIONARYVAR
  2
AcDbDictionaryVar
  3
ObjectDBX Classes
 90
        0
 91
        8
280
     0
281
     0
  0
CLASS
  1
LAYER_INDEX
  2
AcDbLayerIndex
  3
ObjectDBX Classes
 90
        0
 91
        0
280
     0
281
     0
  0
CLASS
  1
IDBUFFER
  2
AcDbIdBuffer
  3
ObjectDBX Classes
 90
        0
 91
        0
280
     0
281
     0
  0
CLASS
  1
ACDBDICTIONARYWDFLT
  2
AcDbDictionaryWithDefault
  3
ObjectDBX Classes
 90
        0
 91
        1
280
     0
281
     0
  0
CLASS
  1
ACME_DOCUMENT
  2
AcMeDbDoc
  3
AcMeServices
 90
     1024
 91
        2
280
     0
281
     0
  0
CLASS
  1
AMGSETTINGSOBJ
  2
AmgSettingsObj
  3
"AcadM|Product Description: AutoCAD Mechanical|Company: Autodesk, Inc."
 90
     1024
 91
        4
280
     0
281
     0
  0
CLASS
  1
ACIMSYSVARMAN
  2
AcImSysVarManager
  3
AcMeServices
 90
     1024
 91
        5
280
     0
281
     0
  0
CLASS
  1
ACIMREALSYSVAR
  2
AcImRealSysVar
  3
AcMeServices
 90
     1024
 91
        3
280
     0
281
     0
  0
CLASS
  1
ACIMINTSYSVAR
  2
AcImIntSysVar
  3
AcMeServices
 90
     1024
 91
       27
280
     0
281
     0
  0
CLASS
  1
ACDBENTITYCACHE
  2
AcMeEntityCache
  3
AcMeServices
 90
     1024
 91
        1
280
     0
281
     0
  0
CLASS
  1
GSMANAGER
  2
AcMeGSManager
  3
AcMeServices
 90
     1024
 91
        1
280
     0
281
     0
  0
CLASS
  1
AMDTINTERNALREACTOR
  2
AmdtInternalReactor
  3
AcMeServices
 90
     1024
 91
        2
280
     0
281
     0
  0
CLASS
  1
ACME_DATABASE
  2
AcMeDbDatabase
  3
AcMeServices
 90
     1024
 91
        2
280
     0
281
     0
  0
CLASS
  1
ACMDATADICTIONARY
  2
AcmDataDictionary
  3
"AcmSymBB|Product Description: AutoCAD Mechanical|Company: Autodesk, Inc."
 90
     1024
 91
        1
280
     0
281
     0
  0
CLASS
  1
ACMDATAENTRYBLOCK
  2
AcmDataEntryBlock
  3
AcmSymBB|Product Description: AutoCAD Mechanical|Company: Autodesk, Inc.
 90
     1024
 91
        2
280
     0
281
     0
  0
CLASS
  1
AMGOBJPROPCFG
  2
AmgObjPropCfg
  3
"AmgLay|Product Description: AutoCAD Mechanical|Company: Autodesk, Inc."
 90
     1025
 91
        1
280
     0
281
     0
  0
CLASS
  1
ACAMGFILTERDAT
  2
AcAmgFilterDat
  3
"AcadM|Product Description: AutoCAD Mechanical|Company: Autodesk, Inc."
 90
     1024
 91
        5
280
     0
281
     0
  0
CLASS
  1
ACGREFMASTER
  2
AcGrefMaster
  3
AcAttribServices
 90
     1024
 91
        1
280
     0
281
     0
  0
CLASS
  1
AM_DRAWING_MGR
  2
AcDmDwgMgr
  3
AcMechDwgViewMgmt
 90
     1024
 91
        1
280
     0
281
     0
  0
CLASS
  1
AM_DWG_DOCUMENT
  2
AcDmDwgDocument
  3
AcMechDwgViewMgmt
 90
     1024
 91
        1
280
     0
281
     0
  0
CLASS
  1
AM_DWG_SHEET
  2
AcDmSheet
  3
AcMechDwgViewMgmt
 90
     1024
 91
        1
280
     0
281
     0
  0
CLASS
  1
AM_VIEWDIMPARMAP
  2
AcDmViewDimParMap
  3
AcMechDwgViewMgmt
 90
     1024
 91
        1
280
     0
281
     0
  0
CLASS
  1
AM_DWGMGR_NAME
  2
AcDmDwgMgrName
  3
AcMechDwgViewMgmt
 90
     1024
 91
        1
280
     0
281
     0
  0
CLASS
  1
ACGREFACADMASTER
  2
AcGrefacadMaster
  3
AcGrefServices
 90
     1024
 91
        1
280
     0
281
     0
  0
CLASS
  1
AMDTMENUSTATEMGR
  2
AmdtMenuStateMgr
  3
McadcomServices
 90
     1024
 91
        1
280
     0
281
     0
  0
CLASS
  1
AMDTMCOMMENUSTATE
  2
AmdtMcomMenuState
  3
McadcomServices
 90
     1024
 91
        1
280
     0
281
     0
  0
CLASS
  1
AMIMASTER
  2
AmiMaster
  3
AmiServices
 90
     1024
 91
        1
280
     0
281
     0
  0
CLASS
  1
MAPIAMMOUDLE
  2
MApiAmModule
  3
MApiAmServices
 90
     1024
 91
        1
280
     0
281
     0
  0
CLASS
  1
AMDTADMENUSTATE
  2
AmdtAdMenuState
  3
DesignerServices
 90
     1024
 91
        1
280
     0
281
     0
  0
CLASS
  1
ADAPPL
  2
AcAdAppl
  3
DesignerServices
 90
     1024
 91
        1
280
     0
281
     0
  0
CLASS
  1
DEPMGR
  2
AcAdDepMgr
  3
DesignerServices
 90
     1024
 91
        1
280
     0
281
     0
  0
CLASS
  1
PARAMMGR
  2
AcAdParamMgr
  3
DesignerServices
 90
     1024
 91
        1
280
     0
281
     0
  0
CLASS
  1
PARAMSCOPE
  2
AcAdParamScope
  3
DesignerServices
 90
     1024
 91
        1
280
     0
281
     0
  0
CLASS
  1
NAMEDAPPL
  2
AcAdNamedAppl
  3
DesignerServices
 90
     1024
 91
        1
280
     0
281
     0
  0
CLASS
  1
AMDTDMMENUSTATE
  2
AmdtDmMenuState
  3
AcMechDwgViewMgmt
 90
     1024
 91
        1
280
     0
281
     0
  0
CLASS
  1
AMDTAMMENUSTATE
  2
AmdtAmMenuState
  3
DesignerAssemblies
 90
     1024
 91
        1
280
     0
281
     0
  0
CLASS
  1
ACIMSTRSYSVAR
  2
AcImStrSysVar
  3
AcMeServices
 90
     1024
 91
        5
280
     0
281
     0
  0
CLASS
  1
ACAMPROJECT
  2
AcAmProject
  3
DesignerAssemblies
 90
     1024
 91
        1
280
     0
281
     0
  0
CLASS
  1
ACAMGRCOMPDEF
  2
AcAmGrCompDef
  3
DesignerAssemblies
 90
     1024
 91
        1
280
     0
281
     0
  0
CLASS
  1
ACCMCONTEXT
  2
AcCmContext
  3
DesignerAssemblies
 90
     1024
 91
        1
280
     0
281
     0
  0
CLASS
  1
ACAMCOMPDEF
  2
AcAmCompDef
  3
DesignerAssemblies
 90
     1024
 91
        1
280
     0
281
     0
  0
CLASS
  1
ACAMCOMPDEFMGR
  2
AcAmCompDefMgr
  3
DesignerAssemblies
 90
     1024
 91
        1
280
     0
281
     0
  0
CLASS
  1
AMCONTEXTMGR
  2
AcAmContextMgr
  3
DesignerAssemblies
 90
     1024
 91
        1
280
     0
281
     0
  0
CLASS
  1
ACAMCONTEXTMODELER
  2
AcAmContextModeler
  3
DesignerAssemblies
 90
     1024
 91
        1
280
     0
281
     0
  0
CLASS
  1
CATALOGSTATE
  2
AcAmCatalogState
  3
DesignerAssemblies
 90
     1024
 91
        1
280
     0
281
     0
  0
CLASS
  1
ACAMGRCOMPDEFSET
  2
AcAmGrCompDefSet
  3
DesignerAssemblies
 90
     1024
 91
        1
280
     0
281
     0
  0
CLASS
  1
AMDTBROWSERDBTAB
  2
AmdtBrowserDbTab
  3
McadcomServices
 90
     1024
 91
        1
280
     0
281
     0
  0
CLASS
  1
CBROWSERAPPOBJECT
  2
CBrowserAppObject
  3
McadcomServices
 90
     1024
 91
        3
280
     0
281
     0
  0
CLASS
  1
DM_PLACEHOLDER
  2
AcDmSelsetPlaceholder
  3
AcMechDwgViewMgmt
 90
     1024
 91
        1
280
     0
281
     0
  0
CLASS
  1
ACMSTANDARDANSI
  2
AcmStandardANSI
  3
"Amdt_StdImp|Product Description: AutoCAD Mechanical|Company: Autodesk, Inc."
 90
     1024
 91
        1
280
     0
281
     0
  0
CLASS
  1
ACMSURFSTANDARDANSI
  2
AcmSurfTextStdANSI
  3
"Amdt_StdImp|Product Description: AutoCAD Mechanical|Company: Autodesk, Inc."
 90
     1024
 91
        1
280
     0
281
     0
  0
CLASS
  1
ACMFCFSTANDARDANSI
  2
AcmFCFStdANSI
  3
"Amdt_StdImp|Product Description: AutoCAD Mechanical|Company: Autodesk, Inc."
 90
     1024
 91
        1
280
     0
281
     0
  0
CLASS
  1
ACMWELDSTANDARDANSI
  2
AcmWeldingStdANSI
  3
"Amdt_StdImp|Product Description: AutoCAD Mechanical|Company: Autodesk, Inc."
 90
     1024
 91
        1
280
     0
281
     0
  0
CLASS
  1
ACMIDSTANDARDANSI
  2
AcmIdStdANSI
  3
"Amdt_StdImp|Product Description: AutoCAD Mechanical|Company: Autodesk, Inc."
 90
     1024
 91
        1
280
     0
281
     0
  0
CLASS
  1
ACMDATUMSTANDARDANSI
  2
AcmDatumStdANSI
  3
"Amdt_StdImp|Product Description: AutoCAD Mechanical|Company: Autodesk, Inc."
 90
     1024
 91
        1
280
     0
281
     0
  0
CLASS
  1
ACMBOMSTANDARDANSI
  2
AcmBOMStdANSI
  3
"Amdt_StdImp|Product Description: AutoCAD Mechanical|Company: Autodesk, Inc."
 90
     1024
 91
        1
280
     0
281
     0
  0
CLASS
  1
ACMDETAILSTANDARDANSI
  2
AmdtDetailSymStdANSI
  3
"Amdt_StdImp|Product Description: AutoCAD Mechanical|Company: Autodesk, Inc."
 90
     1024
 91
        1
280
     0
281
     0
  0
CLASS
  1
ACMSECTIONSTANDARDANSI
  2
AmdtSectionSymStdANSI
  3
"Amdt_StdImp|Product Description: AutoCAD Mechanical|Company: Autodesk, Inc."
 90
     1024
 91
        1
280
     0
281
     0
  0
CLASS
  1
ACMCENTERLINESTANDARDANSI
  2
AmdtCenterLineStdANSI
  3
"Amdt_StdImp|Product Description: AutoCAD Mechanical|Company: Autodesk, Inc."
 90
     1024
 91
        1
280
     0
281
     0
  0
CLASS
  1
ACMTHREADLINESTANDARDANSI
  2
AmdtThreadLineStdANSI
  3
"Amdt_StdImp|Product Description: AutoCAD Mechanical|Company: Autodesk, Inc."
 90
     1024
 91
        1
280
     0
281
     0
  0
CLASS
  1
ACMNOTESTANDARDANSI
  2
AmdtNoteStdANSI
  3
"Amdt_StdImp|Product Description: AutoCAD Mechanical|Company: Autodesk, Inc."
 90
     1024
 91
        1
280
     0
281
     0
  0
CLASS
  1
AMDTNOTETEMPLATEDB
  2
AmdtNoteTemplateDB
  3
AcmSymBB|Product Description: AutoCAD Mechanical|Company: Autodesk, Inc.
 90
     1024
 91
        8
280
     0
281
     0
  0
CLASS
  1
ACAMGLAYSTD
  2
AcAmgLayStd
  3
"AmgLay|Product Description: AutoCAD Mechanical|Company: Autodesk, Inc."
 90
     1024
 91
        2
280
     0
281
     0
  0
CLASS
  1
ACAMGDIMSTD
  2
AcAmgDimStd
  3
"AmgDim|Product Description: AutoCAD Mechanical|Company: Autodesk, Inc."
 90
     1024
 91
        2
280
     0
281
     0
  0
CLASS
  1
ACAMGHOLECHARTSTDANSI
  2
AcAmgHoleChartStdANSI
  3
AmgDim|Product Description: AutoCAD Mechanical|Company: Autodesk, Inc.
 90
     1024
 91
        1
280
     0
281
     0
  0
CLASS
  1
ACAMGTITLESTD
  2
AcAmgTitleStd
  3
"AmgTitle|Product Description: AutoCAD Mechanical|Company: Autodesk, Inc."
 90
     4095
 91
        2
280
     0
281
     0
  0
CLASS
  1
TABLESTYLE
  2
AcDbTableStyle
  3
ObjectDBX Classes
 90
     4095
 91
        1
280
     0
281
     0
  0
CLASS
  1
ACMSTANDARDDIN
  2
AcmStandardDIN
  3
"Amdt_StdImp|Product Description: AutoCAD Mechanical|Company: Autodesk, Inc."
 90
     1024
 91
        1
280
     0
281
     0
  0
CLASS
  1
AMDTEDGESTANDARDDIN
  2
AmdtEdgeStdDIN
  3
"Amdt_StdImp|Product Description: AutoCAD Mechanical|Company: Autodesk, Inc."
 90
     1024
 91
        1
280
     0
281
     0
  0
CLASS
  1
ACMSURFSTANDARDDIN
  2
AcmSurfTextStdDIN
  3
"Amdt_StdImp|Product Description: AutoCAD Mechanical|Company: Autodesk, Inc."
 90
     1024
 91
        1
280
     0
281
     0
  0
CLASS
  1
ACMFCFSTANDARDDIN
  2
AcmFCFStdDIN
  3
"Amdt_StdImp|Product Description: AutoCAD Mechanical|Company: Autodesk, Inc."
 90
     1024
 91
        1
280
     0
281
     0
  0
CLASS
  1
ACMWELDSTANDARDDIN
  2
AcmWeldingStdDIN
  3
"Amdt_StdImp|Product Description: AutoCAD Mechanical|Company: Autodesk, Inc."
 90
     1024
 91
        1
280
     0
281
     0
  0
CLASS
  1
ACMIDSTANDARDDIN
  2
AcmIdStdDIN
  3
"Amdt_StdImp|Product Description: AutoCAD Mechanical|Company: Autodesk, Inc."
 90
     1024
 91
        1
280
     0
281
     0
  0
CLASS
  1
ACMDATUMSTANDARDDIN
  2
AcmDatumStdDIN
  3
"Amdt_StdImp|Product Description: AutoCAD Mechanical|Company: Autodesk, Inc."
 90
     1024
 91
        1
280
     0
281
     0
  0
CLASS
  1
ACMBOMSTANDARDDIN
  2
AcmBOMStdDIN
  3
"Amdt_StdImp|Product Description: AutoCAD Mechanical|Company: Autodesk, Inc."
 90
     1024
 91
        1
280
     0
281
     0
  0
CLASS
  1
ACMDETAILSTANDARDDIN
  2
AmdtDetailSymStdDIN
  3
"Amdt_StdImp|Product Description: AutoCAD Mechanical|Company: Autodesk, Inc."
 90
     1024
 91
        1
280
     0
281
     0
  0
CLASS
  1
ACMSECTIONSTANDARDDIN
  2
AmdtSectionSymStdDIN
  3
"Amdt_StdImp|Product Description: AutoCAD Mechanical|Company: Autodesk, Inc."
 90
     1024
 91
        1
280
     0
281
     0
  0
CLASS
  1
ACMCENTERLINESTANDARDDIN
  2
AmdtCenterLineStdDIN
  3
"Amdt_StdImp|Product Description: AutoCAD Mechanical|Company: Autodesk, Inc."
 90
     1024
 91
        1
280
     0
281
     0
  0
CLASS
  1
ACMTHREADLINESTANDARDDIN
  2
AmdtThreadLineStdDIN
  3
"Amdt_StdImp|Product Description: AutoCAD Mechanical|Company: Autodesk, Inc."
 90
     1024
 91
        1
280
     0
281
     0
  0
CLASS
  1
ACMNOTESTANDARDDIN
  2
AmdtNoteStdDIN
  3
"Amdt_StdImp|Product Description: AutoCAD Mechanical|Company: Autodesk, Inc."
 90
     1024
 91
        1
280
     0
281
     0
  0
CLASS
  1
ACAMGHOLECHARTSTDDIN
  2
AcAmgHoleChartStdDIN
  3
AmgDim|Product Description: AutoCAD Mechanical|Company: Autodesk, Inc.
 90
     1024
 91
        1
280
     0
281
     0
  0
CLASS
  1
SORTENTSTABLE
  2
AcDbSortentsTable
  3
ObjectDBX Classes
 90
        0
 91
        1
280
     0
281
     0
  0
CLASS
  1
VAACXREFPANELOBJECT
  2
VaAcXREFPanelObject
  3
VAAC_ADDIN
 90
        0
 91
        0
280
     0
281
     0
  0
CLASS
  1
VAACIMAGEINVENTORY
  2
VaAcImageInventory
  3
VAAC_ADDIN
 90
        0
 91
        0
280
     0
281
     0
  0
CLASS
  1
MATERIAL
  2
AcDbMaterial
  3
ObjectDBX Classes
 90
     1153
 91
        3
280
     0
281
     0
  0
CLASS
  1
VISUALSTYLE
  2
AcDbVisualStyle
  3
ObjectDBX Classes
 90
     4095
 91
       16
280
     0
281
     0
  0
CLASS
  1
ACRFATTGENMGR
  2
AcRfAttGeneralMgr
  3
AcAttribServices
 90
     1024
 91
        1
280
     0
281
     0
  0
CLASS
  1
ACRFOBJATTMGR
  2
AcRfObjAttGroupMgr
  3
AcAttribServices
 90
     1024
 91
        1
280
     0
281
     0
  0
CLASS
  1
ACRFMCADAPIATTHOLDER
  2
AcRfMCADAPIAttHolder
  3
AcAttribServices
 90
     1024
 91
        1
280
     0
281
     0
  0
CLASS
  1
AMDTSYSATTR
  2
AmdtSystemAttribute
  3
AcAttribServices
 90
     1024
 91
        1
280
     0
281
     0
  0
CLASS
  1
ACMTAPERSTANDARDANSI
  2
AcmTaperStdANSI
  3
"Amdt_StdImp|Product Description: AutoCAD Mechanical|Company: Autodesk, Inc."
 90
     1024
 91
        1
280
     0
281
     0
  0
CLASS
  1
ACMTAPERSTANDARDDIN
  2
AcmTaperStdDIN
  3
"Amdt_StdImp|Product Description: AutoCAD Mechanical|Company: Autodesk, Inc."
 90
     1024
 91
        1
280
     0
281
     0
  0
CLASS
  1
CAMSSTRUCTBTNSTATE
  2
StructBtnState
  3
DesignerAssemblies
 90
     1024
 91
        1
280
     0
281
     0
  0
CLASS
  1
ACMDIMBREAKPERSREACTOR
  2
AcmDimBreakPersReactor
  3
AmgDim|Product Description: AutoCAD Mechanical|Company: Autodesk, Inc.
 90
     4095
 91
        1
280
     0
281
     0
  0
CLASS
  1
SCALE
  2
AcDbScale
  3
ObjectDBX Classes
 90
     1153
 91
       33
280
     0
281
     0
  0
CLASS
  1
MLEADERSTYLE
  2
AcDbMLeaderStyle
  3
ACDB_MLEADERSTYLE_CLASS
 90
     4095
 91
        1
280
     0
281
     0
  0
CLASS
  1
ACMANOOTATIONVIEWSTANDARDANSI
  2
AmdtAnViewStdANSI
  3
"Amdt_StdImp|Product Description: AutoCAD Mechanical|Company: Autodesk, Inc."
 90
     1024
 91
        1
280
     0
281
     0
  0
CLASS
  1
ACMANOOTATIONVIEWSTANDARDDIN
  2
AmdtAnViewStdDIN
  3
"Amdt_StdImp|Product Description: AutoCAD Mechanical|Company: Autodesk, Inc."
 90
     1024
 91
        1
280
     0
281
     0
  0
CLASS
  1
CELLSTYLEMAP
  2
AcDbCellStyleMap
  3
ObjectDBX Classes
 90
     1152
 91
        1
280
     0
281
     0
  0
ENDSEC
  0
SECTION
  2
TABLES
  0
TABLE
  2
VPORT
  5
12
330
0
100
AcDbSymbolTable
 70
     1
  0
VPORT
  5
2D25
330
12
100
AcDbSymbolTableRecord
100
AcDbViewportTableRecord
  2
*Active
 70
     0
 10
0.0
 20
0.0
 11
1.0
 21
1.0
 12
262.2936856641644
 22
264.1447328405671
 13
0.0
 23
0.0
 14
10.0
 24
10.0
 15
10.0
 25
10.0
 16
0.0
 26
0.0
 36
1.0
 17
0.0
 27
0.0
 37
0.0
 40
363.9284514227165
 41
1.578125
 42
50.0
 43
0.0
 44
0.0
 50
0.0
 51
0.0
 71
     0
 72
   100
 73
     1
 74
     0
 75
     0
 76
     0
 77
     0
 78
     0
281
     0
 65
     1
110
0.0
120
0.0
130
0.0
111
1.0
121
0.0
131
0.0
112
0.0
122
1.0
132
0.0
 79
     0
146
0.0
348
2D30
 60
     3
 61
     5
292
     1
282
     1
141
0.0
142
0.0
 63
   250
421
  3355443
  0
ENDTAB
  0
TABLE
  2
LTYPE
  5
E
330
0
100
AcDbSymbolTable
 70
    33
  0
LTYPE
  5
F
330
E
100
AcDbSymbolTableRecord
100
AcDbLinetypeTableRecord
  2
BYBLOCK
 70
     0
  3

 72
    65
 73
     0
 40
0.0
  0
LTYPE
  5
9
330
E
100
AcDbSymbolTableRecord
100
AcDbLinetypeTableRecord
  2
BYLAYER
 70
     0
  3

 72
    65
 73
     0
 40
0.0
  0
LTYPE
  5
A
330
E
100
AcDbSymbolTableRecord
100
AcDbLinetypeTableRecord
  2
CONTINUOUS
 70
     0
  3
Solid line
 72
    65
 73
     0
 40
0.0
  0
LTYPE
  5
23
330
E
100
AcDbSymbolTableRecord
100
AcDbLinetypeTableRecord
  2
MITTE
 70
     0
  3
____ _ ____ _ ____ _ ____ _ ____ _ ____ _ ____ 
 72
    65
 73
     4
 40
2.0
 49
1.25
 74
     0
 49
-0.25
 74
     0
 49
0.25
 74
     0
 49
-0.25
 74
     0
  0
LTYPE
  5
B7
330
E
100
AcDbSymbolTableRecord
100
AcDbLinetypeTableRecord
  2
Amconstr
 70
     0
  3
_______________________
 72
    65
 73
     2
 40
9999.0
 49
9999.0
 74
     0
 49
0.0
 74
     0
  0
LTYPE
  5
BD
330
E
100
AcDbSymbolTableRecord
100
AcDbLinetypeTableRecord
  2
PHANTOM2
 70
     0
  3
Phantom (.5x) ___ _ _ ___ _ _ ___ _ _ ___ _ _
 72
    65
 73
     6
 40
1.25
 49
0.625
 74
     0
 49
-0.125
 74
     0
 49
0.125
 74
     0
 49
-0.125
 74
     0
 49
0.125
 74
     0
 49
-0.125
 74
     0
  0
LTYPE
  5
BE
330
E
100
AcDbSymbolTableRecord
100
AcDbLinetypeTableRecord
  2
Amzigzag2
 70
     0
  3
/\/-/\/-/\/-/\/-/\/-/\/
 72
    65
 73
     2
 40
0.4401
 49
0.0001
 74
     4
 75
   135
340
BB
 46
0.0016
 50
0.0
 44
0.0
 45
0.0
 49
-0.4400000000000001
 74
     0
  0
LTYPE
  5
2218
330
E
100
AcDbSymbolTableRecord
100
AcDbLinetypeTableRecord
  2
HIDDEN
 70
     0
  3
Verdeckt
 72
    65
 73
     2
 40
0.375
 49
0.25
 74
     0
 49
-0.125
 74
     0
  0
LTYPE
  5
2219
330
E
100
AcDbSymbolTableRecord
100
AcDbLinetypeTableRecord
  2
CENTER
 70
     0
  3
Mitte ____ _ ____ _ ____ _ ____ _ ____ _ ____
 72
    65
 73
     4
 40
2.0
 49
1.25
 74
     0
 49
-0.25
 74
     0
 49
0.25
 74
     0
 49
-0.25
 74
     0
  0
LTYPE
  5
226A
330
E
100
AcDbSymbolTableRecord
100
AcDbLinetypeTableRecord
  2
ACANSTGB
 70
     0
  3
__ . . __ . .
 72
    65
 73
     6
 40
0.35433070866
 49
0.15748031496
 74
     0
 49
-0.03937007874
 74
     0
 49
0.03937007874
 74
     0
 49
-0.03937007874
 74
     0
 49
0.03937007874
 74
     0
 49
-0.03937007874
 74
     0
  0
LTYPE
  5
226B
330
E
100
AcDbSymbolTableRecord
100
AcDbLinetypeTableRecord
  2
ACANSTGL
 70
     0
  3
_ _ _ _ _
 72
    65
 73
     2
 40
0.11811023622
 49
0.07874015748
 74
     0
 49
-0.03937007874
 74
     0
  0
LTYPE
  5
2803
330
E
100
AcDbSymbolTableRecord
100
AcDbLinetypeTableRecord
  2
ACDINWELD
 70
     0
  3
_ _ _ _ _
 72
    65
 73
     2
 40
2.0
 49
2.0
 74
     0
 49
-1.0
 74
     0
  0
LTYPE
  5
2804
330
E
100
AcDbSymbolTableRecord
100
AcDbLinetypeTableRecord
  2
ACDINTGB
 70
     0
  3
__ . . __ . .
 72
    65
 73
     6
 40
9.0
 49
4.0
 74
     0
 49
-1.0
 74
     0
 49
1.0
 74
     0
 49
-1.0
 74
     0
 49
1.0
 74
     0
 49
-1.0
 74
     0
  0
LTYPE
  5
2805
330
E
100
AcDbSymbolTableRecord
100
AcDbLinetypeTableRecord
  2
ACDINTGL
 70
     0
  3
_ _ _ _ _
 72
    65
 73
     2
 40
3.0
 49
2.0
 74
     0
 49
-1.0
 74
     0
  0
LTYPE
  5
3082
330
E
100
AcDbSymbolTableRecord
100
AcDbLinetypeTableRecord
  2
A2XREF|MITTE
 70
    48
  3
____ _ ____ _ ____ _ ____ _ ____ _ ____ _ ____ 
 72
    65
 73
     4
 40
2.0
 49
1.25
 74
     0
 49
-0.25
 74
     0
 49
0.25
 74
     0
 49
-0.25
 74
     0
  0
ENDTAB
  0
TABLE
  2
LAYER
  5
B
330
0
100
AcDbSymbolTable
 70
    11
  0
LAYER
  5
8
102
{ACAD_XDICTIONARY
360
309B
102
}
330
B
100
AcDbSymbolTableRecord
100
AcDbLayerTableRecord
  2
0
 70
     0
 62
     7
  6
CONTINUOUS
370
    -3
390
98
347
2D29
  0
LAYER
  5
27
102
{ACAD_XDICTIONARY
360
309D
102
}
330
B
100
AcDbSymbolTableRecord
100
AcDbLayerTableRecord
  2
TEXT
 70
     0
 62
     2
  6
CONTINUOUS
370
    -3
390
98
347
2D29
  0
LAYER
  5
22
102
{ACAD_XDICTIONARY
360
309F
102
}
330
B
100
AcDbSymbolTableRecord
100
AcDbLayerTableRecord
  2
MITTE
 70
     0
 62
     4
  6
MITTE
370
    -3
390
98
347
2D29
  0
LAYER
  5
20
102
{ACAD_XDICTIONARY
360
30A1
102
}
330
B
100
AcDbSymbolTableRecord
100
AcDbLayerTableRecord
  2
LINIE
 70
     0
 62
     4
  6
CONTINUOUS
370
    -3
390
98
347
2D29
  0
LAYER
  5
1244
330
B
100
AcDbSymbolTableRecord
100
AcDbLayerTableRecord
  2
Defpoints
 70
     0
 62
     7
  6
CONTINUOUS
290
     0
370
    -3
390
98
347
2D29
  0
LAYER
  5
2523
102
{ACAD_XDICTIONARY
360
30A3
102
}
330
B
100
AcDbSymbolTableRecord
100
AcDbLayerTableRecord
  2
BEM
 70
     0
 62
     3
  6
CONTINUOUS
370
    -3
390
98
347
2D29
  0
LAYER
  5
3078
102
{ACAD_XDICTIONARY
360
3079
102
}
330
B
100
AcDbSymbolTableRecord
100
AcDbLayerTableRecord
  2
A2XREF|TEXT
 70
    48
 62
     2
  6
Continuous
370
    -3
390
98
347
2D29
  0
LAYER
  5
307A
102
{ACAD_XDICTIONARY
360
307B
102
}
330
B
100
AcDbSymbolTableRecord
100
AcDbLayerTableRecord
  2
A2XREF|LINIE
 70
    48
 62
     4
  6
Continuous
370
    -3
390
98
347
2D29
  0
LAYER
  5
307C
102
{ACAD_XDICTIONARY
360
307D
102
}
330
B
100
AcDbSymbolTableRecord
100
AcDbLayerTableRecord
  2
A2XREF|RAHM
 70
    48
 62
   255
  6
Continuous
370
    -3
390
98
347
2D29
  0
LAYER
  5
307E
102
{ACAD_XDICTIONARY
360
307F
102
}
330
B
100
AcDbSymbolTableRecord
100
AcDbLayerTableRecord
  2
A2XREF|MITTE
 70
    48
 62
     4
  6
Continuous
370
    -3
390
98
347
2D29
  0
LAYER
  5
3080
102
{ACAD_XDICTIONARY
360
3081
102
}
330
B
100
AcDbSymbolTableRecord
100
AcDbLayerTableRecord
  2
A2XREF|SCHRAFF
 70
    48
 62
     1
  6
Continuous
370
    -3
390
98
347
2D29
  0
ENDTAB
  0
TABLE
  2
STYLE
  5
C
330
0
100
AcDbSymbolTable
 70
    22
  0
STYLE
  5
D
330
C
100
AcDbSymbolTableRecord
100
AcDbTextStyleTableRecord
  2
STANDARD
 70
     0
 40
0.0
 41
1.0
 50
0.0
 71
     0
 42
2.5
  3
romans.shx
  4

  0
STYLE
  5
BB
330
C
100
AcDbSymbolTableRecord
100
AcDbTextStyleTableRecord
  2

 70
     1
 40
0.0
 41
1.0
 50
0.0
 71
     0
 42
2.5
  3
ltypeshp.shx
  4

  0
STYLE
  5
225D
330
C
100
AcDbSymbolTableRecord
100
AcDbTextStyleTableRecord
  2
ACANSTS
 70
     0
 40
1.0
 41
1.0
 50
0.0
 71
     0
 42
2.5
  3
romans.shx
  4

  0
STYLE
  5
2269
330
C
100
AcDbSymbolTableRecord
100
AcDbTextStyleTableRecord
  2
ACANSGDT
 70
     0
 40
0.0
 41
1.0
 50
0.0
 71
     0
 42
2.5
  3
amgdtans.shx
  4

  0
STYLE
  5
22AB
330
C
100
AcDbSymbolTableRecord
100
AcDbTextStyleTableRecord
  2
Stil1
 70
     0
 40
0.0
 41
1.0
 50
0.0
 71
     0
 42
2.5
  3
ariblk.TTF
  4

1001
ACAD
1000
Arial Black
1071
       34
  0
STYLE
  5
2807
330
C
100
AcDbSymbolTableRecord
100
AcDbTextStyleTableRecord
  2
ACDINTS
 70
     0
 40
1.0
 41
1.0
 50
0.0
 71
     0
 42
2.5
  3
isocp.shx
  4

  0
STYLE
  5
2808
330
C
100
AcDbSymbolTableRecord
100
AcDbTextStyleTableRecord
  2
ACDINGDT
 70
     0
 40
0.0
 41
1.0
 50
0.0
 71
     0
 42
2.5
  3
amgdt.shx
  4

  0
ENDTAB
  0
TABLE
  2
VIEW
  5
10
330
0
100
AcDbSymbolTable
 70
     0
  0
ENDTAB
  0
TABLE
  2
UCS
  5
11
330
0
100
AcDbSymbolTable
 70
     0
  0
ENDTAB
  0
TABLE
  2
APPID
  5
14
330
0
100
AcDbSymbolTable
 70
    11
  0
APPID
  5
15
330
14
100
AcDbSymbolTableRecord
100
AcDbRegAppTableRecord
  2
ACAD
 70
     0
  0
APPID
  5
60
330
14
100
AcDbSymbolTableRecord
100
AcDbRegAppTableRecord
  2
MCAD_NO_VIS
 70
     0
  0
APPID
  5
A5
330
14
100
AcDbSymbolTableRecord
100
AcDbRegAppTableRecord
  2
ACAD_TEMP_GRAPHIC
 70
     0
  0
APPID
  5
222E
330
14
100
AcDbSymbolTableRecord
100
AcDbRegAppTableRecord
  2
AD_DRAW
 70
     0
  0
APPID
  5
2231
330
14
100
AcDbSymbolTableRecord
100
AcDbRegAppTableRecord
  2
ACATTRIBSERVICES
 70
     0
  0
APPID
  5
224F
330
14
100
AcDbSymbolTableRecord
100
AcDbRegAppTableRecord
  2
DESIGNERASSEMBLIES
 70
     0
  0
APPID
  5
2255
330
14
100
AcDbSymbolTableRecord
100
AcDbRegAppTableRecord
  2
ACADM_DIM_EDIT
 70
     0
  0
APPID
  5
2256
330
14
100
AcDbSymbolTableRecord
100
AcDbRegAppTableRecord
  2
AMDT_DM_ADJ
 70
     0
  0
APPID
  5
2810
330
14
100
AcDbSymbolTableRecord
100
AcDbRegAppTableRecord
  2
ACAD_PSEXT
 70
     0
  0
APPID
  5
306E
330
14
100
AcDbSymbolTableRecord
100
AcDbRegAppTableRecord
  2
ACAD_MLEADERVER
 70
     0
  0
APPID
  5
3083
330
14
100
AcDbSymbolTableRecord
100
AcDbRegAppTableRecord
  2
DCO15
 70
     0
  0
ENDTAB
  0
TABLE
  2
DIMSTYLE
  5
16
330
0
100
AcDbSymbolTable
 70
    51
100
AcDbDimStyleTable
 71
     1
340
1B
  0
DIMSTYLE
105
1B
330
16
100
AcDbSymbolTableRecord
100
AcDbDimStyleTableRecord
  2
ISO-25
 70
     0
 41
3.5
 42
0.0
 43
7.0
 44
1.25
 73
     0
 74
     0
 77
     1
 78
     8
140
3.5
141
0.0
143
0.0394
144
0.5
145
1.0
147
1.5
172
     1
176
   256
177
   256
178
   256
284
     8
288
     1
340
D
  0
DIMSTYLE
105
21A9
330
16
100
AcDbSymbolTableRecord
100
AcDbDimStyleTableRecord
  2
STANDARD
 70
     0
 41
3.5
 42
0.0
 43
7.0
 44
1.25
 73
     0
 74
     0
 77
     1
 78
     8
140
3.5
141
0.0
146
0.7142857142857144
147
1.5
172
     1
176
   256
177
   256
178
   256
284
     8
288
     1
340
D
  0
DIMSTYLE
105
2272
330
16
100
AcDbSymbolTableRecord
100
AcDbDimStyleTableRecord
  2
AM_ANSI
 70
     0
  4
mm
 41
0.1
 42
0.05
 43
0.5
 44
0.1
 47
0.1
 48
0.1
 78
     7
 79
     2
140
0.12
141
0.0
146
0.71
147
0.06
176
   256
177
   256
178
     2
274
     4
284
     7
340
D
371
    -1
372
    -1
  0
DIMSTYLE
105
2273
330
16
100
AcDbSymbolTableRecord
100
AcDbDimStyleTableRecord
  2
AM_ANSI$3
 70
     0
  4
mm
 41
0.1
 42
0.05
 43
0.5
 44
0.1
 47
0.1
 48
0.1
 78
     7
 79
     2
140
0.12
141
0.0
146
0.71
147
0.06
176
   256
177
   256
178
     2
274
     4
284
     7
288
     1
289
     0
340
D
371
    -1
372
    -1
  0
DIMSTYLE
105
2274
330
16
100
AcDbSymbolTableRecord
100
AcDbDimStyleTableRecord
  2
AM_ANSI$4
 70
     0
  4
mm
 41
0.1
 42
0.05
 43
0.5
 44
0.1
 47
0.1
 48
0.1
 78
     7
 79
     2
140
0.12
141
0.0
146
0.71
147
0.06
176
   256
177
   256
178
     2
274
     4
284
     7
288
     1
289
     0
340
D
371
    -1
372
    -1
  0
DIMSTYLE
105
2275
330
16
100
AcDbSymbolTableRecord
100
AcDbDimStyleTableRecord
  2
AM_ANSI$7
 70
     0
  4
mm
 41
0.1
 42
0.05
 43
0.5
 44
0.1
 47
0.1
 48
0.1
 78
     7
 79
     2
140
0.24
141
0.0
146
0.71
147
0.06
176
   256
177
   256
178
     2
274
     4
284
     7
340
D
371
    -1
372
    -1
  0
DIMSTYLE
105
2276
330
16
100
AcDbSymbolTableRecord
100
AcDbDimStyleTableRecord
  2
AM_ANSI$SF
 70
     0
  4
mm
 41
0.1
 42
0.05
 43
0.5
 44
0.1
 47
0.1
 48
0.1
 75
     1
 76
     1
 78
     7
 79
     2
140
0.12
141
0.0
146
0.71
147
0.06
176
   256
177
   256
178
     2
274
     4
284
     7
340
D
371
    -1
372
    -1
  0
DIMSTYLE
105
227B
330
16
100
AcDbSymbolTableRecord
100
AcDbDimStyleTableRecord
  2
AM_ANSI$SH
 70
     0
  4
mm
 41
0.1
 42
0.05
 43
0.5
 44
0.1
 47
0.1
 48
0.1
 75
     1
 76
     1
 78
     7
 79
     2
140
0.12
141
0.0
146
0.71
147
0.06
173
     1
176
   256
177
   256
178
     2
274
     4
284
     7
340
D
343
2277
371
    -1
372
    -1
  0
DIMSTYLE
105
2809
330
16
100
AcDbSymbolTableRecord
100
AcDbDimStyleTableRecord
  2
GEN-ISO
 70
     0
  4
"
 41
2.5
 42
1.0
 43
7.0
 44
1.0
 47
0.1
 48
0.1
 73
     0
 74
     0
 77
     1
 78
     8
140
3.5
141
0.0
143
0.0393701
146
0.71
147
0.6
172
     1
176
   256
177
   256
178
     2
271
     2
272
     3
274
     4
283
     0
340
D
  0
DIMSTYLE
105
280A
330
16
100
AcDbSymbolTableRecord
100
AcDbDimStyleTableRecord
  2
GEN-ISO$3
 70
     0
  4
"
 41
2.5
 42
1.0
 43
7.0
 44
1.0
 47
0.1
 48
0.1
 73
     0
 77
     1
 78
     8
140
3.5
141
0.0
143
0.0393701
146
0.71
147
0.6
176
   256
177
   256
178
     2
271
     2
272
     3
274
     4
283
     0
288
     1
289
     0
340
D
  0
DIMSTYLE
105
280B
330
16
100
AcDbSymbolTableRecord
100
AcDbDimStyleTableRecord
  2
GEN-ISO$4
 70
     0
  4
"
 41
2.5
 42
1.0
 43
7.0
 44
1.0
 47
0.1
 48
0.1
 73
     0
 77
     1
 78
     8
140
3.5
141
0.0
143
0.0393701
146
0.71
147
0.6
176
   256
177
   256
178
     2
271
     2
272
     3
274
     4
283
     0
288
     1
289
     0
340
D
  0
DIMSTYLE
105
280C
330
16
100
AcDbSymbolTableRecord
100
AcDbDimStyleTableRecord
  2
GEN-ISO$6
 70
     0
  4
"
 41
2.5
 42
1.0
 43
7.0
 44
1.0
 47
0.1
 48
0.1
 73
     0
 74
     0
 78
     8
140
3.5
141
0.0
143
0.0393701
146
0.71
147
0.6
176
   256
177
   256
178
     2
271
     2
272
     3
274
     4
283
     0
340
D
  0
DIMSTYLE
105
280D
330
16
100
AcDbSymbolTableRecord
100
AcDbDimStyleTableRecord
  2
GEN-ISO-POS
 70
     0
  4
"
 41
2.5
 42
1.0
 43
7.0
 44
1.0
 47
0.1
 48
0.1
 73
     0
 74
     0
 78
     8
140
5.0
141
0.0
143
0.0393701
146
0.71
147
1.5
176
   256
177
   256
178
     2
271
     2
272
     3
274
     4
283
     0
340
D
  0
DIMSTYLE
105
280E
330
16
100
AcDbSymbolTableRecord
100
AcDbDimStyleTableRecord
  2
GEN-ISO-AXE-F
 70
     0
  4
"
 41
2.5
 42
1.0
 43
7.0
 44
1.0
 47
0.1
 48
0.1
 73
     0
 74
     0
 75
     1
 76
     1
 77
     1
 78
     8
140
3.5
141
0.0
143
0.0393701
146
0.71
147
0.6
172
     1
176
   256
177
   256
178
     2
271
     2
272
     3
274
     4
283
     0
340
D
  0
DIMSTYLE
105
280F
330
16
100
AcDbSymbolTableRecord
100
AcDbDimStyleTableRecord
  2
GEN-ISO-AXE-H
 70
     0
  4
"
 41
2.5
 42
1.0
 43
7.0
 44
1.0
 47
0.1
 48
0.1
 73
     0
 74
     0
 75
     1
 76
     1
 77
     1
 78
     8
140
3.5
141
0.0
143
0.0393701
144
2.0
146
0.71
147
0.6
172
     1
173
     1
176
   256
177
   256
178
     2
271
     2
272
     3
274
     4
283
     0
340
D
  0
ENDTAB
  0
TABLE
  2
BLOCK_RECORD
  5
1
330
0
100
AcDbSymbolTable
 70
    22
  0
BLOCK_RECORD
  5
2
102
{ACAD_XDICTIONARY
360
7F
102
}
330
1
100
AcDbSymbolTableRecord
100
AcDbBlockTableRecord
  2
*MODEL_SPACE
340
9B
 70
     0
280
     1
281
     0
  0
BLOCK_RECORD
  5
3
330
1
100
AcDbSymbolTableRecord
100
AcDbBlockTableRecord
  2
*PAPER_SPACE
340
9C
 70
     0
280
     1
281
     0
  0
BLOCK_RECORD
  5
11F
330
1
100
AcDbSymbolTableRecord
100
AcDbBlockTableRecord
  2
A2XREF
340
0
 70
     0
280
     1
281
     0
  0
BLOCK_RECORD
  5
1F2D
330
1
100
AcDbSymbolTableRecord
100
AcDbBlockTableRecord
  2
MD
340
0
 70
     0
280
     1
281
     0
  0
BLOCK_RECORD
  5
2277
330
1
100
AcDbSymbolTableRecord
100
AcDbBlockTableRecord
  2
GENAXEH
340
0
 70
     0
280
     1
281
     0
  0
BLOCK_RECORD
  5
2F07
330
1
100
AcDbSymbolTableRecord
100
AcDbBlockTableRecord
  2
*D4
340
0
 70
     0
280
     1
281
     0
  0
BLOCK_RECORD
  5
2F13
330
1
100
AcDbSymbolTableRecord
100
AcDbBlockTableRecord
  2
*D5
340
0
 70
     0
280
     1
281
     0
  0
BLOCK_RECORD
  5
2F1F
330
1
100
AcDbSymbolTableRecord
100
AcDbBlockTableRecord
  2
*D6
340
0
 70
     0
280
     1
281
     0
  0
BLOCK_RECORD
  5
2F2B
330
1
100
AcDbSymbolTableRecord
100
AcDbBlockTableRecord
  2
*D7
340
0
 70
     0
280
     1
281
     0
  0
BLOCK_RECORD
  5
2F37
330
1
100
AcDbSymbolTableRecord
100
AcDbBlockTableRecord
  2
*D8
340
0
 70
     0
280
     1
281
     0
  0
BLOCK_RECORD
  5
2F43
330
1
100
AcDbSymbolTableRecord
100
AcDbBlockTableRecord
  2
*D9
340
0
 70
     0
280
     1
281
     0
  0
BLOCK_RECORD
  5
2F4F
330
1
100
AcDbSymbolTableRecord
100
AcDbBlockTableRecord
  2
*D10
340
0
 70
     0
280
     1
281
     0
  0
BLOCK_RECORD
  5
2F5B
330
1
100
AcDbSymbolTableRecord
100
AcDbBlockTableRecord
  2
*D11
340
0
 70
     0
280
     1
281
     0
  0
BLOCK_RECORD
  5
2F67
330
1
100
AcDbSymbolTableRecord
100
AcDbBlockTableRecord
  2
*D12
340
0
 70
     0
280
     1
281
     0
  0
ENDTAB
  0
ENDSEC
  0
SECTION
  2
BLOCKS
  0
BLOCK
  5
4
330
2
100
AcDbEntity
  8
0
100
AcDbBlockBegin
  2
*MODEL_SPACE
 70
     0
 10
0.0
 20
0.0
 30
0.0
  3
*MODEL_SPACE
  1

  0
ENDBLK
  5
5
330
2
100
AcDbEntity
  8
0
100
AcDbBlockEnd
  0
BLOCK
  5
6
330
3
100
AcDbEntity
 67
     1
  8
0
100
AcDbBlockBegin
  2
*PAPER_SPACE
 70
     0
 10
0.0
 20
0.0
 30
0.0
  3
*PAPER_SPACE
  1

  0
ENDBLK
  5
7
330
3
100
AcDbEntity
 67
     1
  8
0
100
AcDbBlockEnd
  0
BLOCK
  5
120
330
11F
100
AcDbEntity
  8
0
 48
10.0
100
AcDbBlockBegin
  2
A2XREF
 70
    36
 10
0.0
 20
0.0
 30
0.0
  3
A2XREF
  1
K:\NORM\A2XREF.dwg
  0
ENDBLK
  5
121
330
11F
100
AcDbEntity
  8
0
 48
10.0
100
AcDbBlockEnd
  0
BLOCK
  5
2011
330
1F2D
100
AcDbEntity
  8
0
 48
10.0
100
AcDbBlockBegin
  2
MD
 70
     0
 10
0.0
 20
0.0
 30
0.0
  3
MD
  1

  0
LINE
  5
1F2E
330
1F2D
100
AcDbEntity
  8
0
100
AcDbLine
 10
47.53723366110105
 20
12.71059282851718
 30
0.0
 11
46.37723366110108
 21
12.71059282851718
 31
0.0
  0
LINE
  5
1F2F
330
1F2D
100
AcDbEntity
  8
0
100
AcDbLine
 10
46.37723366110108
 20
8.360592828517184
 30
0.0
 11
47.53723366110105
 21
8.360592828517184
 31
0.0
  0
SOLID
  5
1F30
330
1F2D
100
AcDbEntity
  8
0
100
AcDbTrace
 10
46.37723366110108
 20
12.71059282851718
 30
0.0
 11
47.53723366110105
 21
12.71059282851718
 31
0.0
 12
46.37723366110108
 22
8.360592828517184
 32
0.0
 13
47.53723366110105
 23
8.360592828517184
 33
0.0
  0
HATCH
  5
1F31
330
1F2D
100
AcDbEntity
  8
0
100
AcDbHatch
 10
0.0
 20
0.0
 30
0.0
210
0.0
220
0.0
230
1.0
  2
SOLID
 70
     1
 71
     0
 91
        7
 92
        7
 72
     1
 73
     1
 93
       10
 10
30.4669081706591
 20
6.035969168044147
 42
0.0
 10
27.92751027088407
 20
6.035969168044175
 42
1.0
 10
27.92751027088406
 20
1.975969168044173
 42
0.0
 10
31.48190817065908
 20
1.975969168044144
 42
0.0
 10
31.48190817065908
 20
3.860969168044221
 42
0.0
 10
29.37751027088396
 20
3.860969168044221
 42
0.0
 10
29.37751027088395
 20
3.42596916804419
 42
0.0
 10
28.21751027088401
 20
3.42596916804419
 42
-1.0
 10
28.21751027088401
 20
4.585969168044158
 42
0.0
 10
30.46690817065908
 20
4.585969168044158
 42
0.0
 97
        0
 92
        7
 72
     0
 73
     1
 93
        9
 10
23.93949524083808
 20
6.035969168044175
 10
22.96221806301177
 20
6.035969168044175
 10
21.61949524083802
 20
6.035969168044175
 10
19.87949524083801
 20
1.975969168044173
 10
21.61949524083802
 20
1.975969168044173
 10
21.87727301861575
 20
2.555969168044185
 10
23.68171746306024
 20
2.555969168044185
 10
23.93949524083808
 20
1.975969168044173
 10
25.67949524083807
 20
1.975969168044144
 97
        0
 92
       22
 72
     0
 73
     1
 93
        3
 10
22.77949524083799
 20
4.585969168044186
 10
23.38527301861581
 20
3.222969168044159
 10
22.1737174630602
 20
3.222969168044159
 97
        0
 92
        7
 72
     0
 73
     1
 93
       12
 10
19.04336733806798
 20
6.035969168044204
 10
17.59336733806793
 20
6.035969168044147
 10
16.43336733806797
 20
4.295969168044194
 10
15.27336733806801
 20
6.035969168044175
 10
13.82336733806794
 20
6.035969168044147
 10
13.82336733806794
 20
1.975969168044201
 10
14.98336733806789
 20
1.975969168044201
 10
14.9833673380679
 20
3.78846916804423
 10
16.43336733806798
 20
1.97596916804423
 10
17.88336733806788
 20
3.788469168044173
 10
17.88336733806788
 20
1.975969168044173
 10
19.04336733806796
 20
1.975969168044173
 97
        0
 92
        7
 72
     0
 73
     1
 93
       12
 10
12.37938092908455
 20
6.035969168044175
 10
7.884380929084542
 20
6.035969168044175
 10
7.884380929084542
 20
1.975969168044144
 10
12.37938092908455
 20
1.975969168044173
 10
12.37938092908455
 20
2.845969168044177
 10
9.624380929084551
 20
2.845969168044177
 10
9.624380929084566
 20
3.715969168044182
 10
11.94438092908459
 20
3.715969168044154
 10
11.9443809290846
 20
4.295969168044194
 10
9.624380929084551
 20
4.295969168044166
 10
9.624380929084551
 20
5.165969168044142
 10
12.37938092908455
 20
5.165969168044142
 97
        0
 92
        7
 72
     1
 73
     1
 93
        4
 10
4.859424217804573
 20
6.035969168044175
 42
0.0
 10
1.379424217804555
 20
6.035969168044175
 42
0.0
 10
1.379424217804555
 20
1.975969168044173
 42
0.0
 10
4.859424217804573
 20
1.975969168044173
 42
1.0
 97
        0
 92
       22
 72
     1
 73
     1
 93
        4
 10
4.279424217804546
 20
3.42596916804419
 42
0.0
 10
3.119424217804564
 20
3.42596916804419
 42
0.0
 10
3.119424217804564
 20
4.585969168044158
 42
0.0
 10
4.279424217804532
 20
4.585969168044158
 42
-1.0
 97
        0
 75
     0
 76
     1
 47
0.029836324778458
 98
        7
 10
26.66618039501043
 20
4.93512662316732
 10
22.90553099190274
 20
5.114144636456273
 10
22.90553099190274
 20
5.114144636456273
 10
18.04056403138409
 20
4.994799368986718
 10
10.93711514142379
 20
5.561689557593979
 10
4.997676967677818
 20
5.203653643100722
 10
4.997676967677818
 20
5.203653643100722
450
        0
451
        0
460
0.0
461
0.0
452
        0
462
0.0
453
        0
470

  0
LINE
  5
1F32
330
1F2D
100
AcDbEntity
  8
0
100
AcDbLine
 10
12.37938092908455
 20
6.035969168044175
 30
0.0
 11
7.884380929084542
 21
6.035969168044175
 31
0.0
  0
LINE
  5
1F33
330
1F2D
100
AcDbEntity
  8
0
100
AcDbLine
 10
7.884380929084542
 20
1.975969168044173
 30
0.0
 11
12.37938092908455
 21
1.975969168044173
 31
0.0
  0
SOLID
  5
1F34
330
1F2D
100
AcDbEntity
  8
0
100
AcDbTrace
 10
9.195740662004979
 20
12.71059282851718
 30
0.0
 11
10.81445056979105
 21
12.71059282851718
 31
0.0
 12
10.00509561589801
 22
11.74720348209459
 32
0.0
 13
10.00509561589801
 23
11.74720348209459
 33
0.0
  0
LINE
  5
1F35
330
1F2D
100
AcDbEntity
  8
0
100
AcDbLine
 10
9.195740662004979
 20
12.71059282851718
 30
0.0
 11
10.81445056979105
 21
12.71059282851718
 31
0.0
  0
LINE
  5
1F36
330
1F2D
100
AcDbEntity
  8
0
100
AcDbLine
 10
9.089124246758657
 20
9.230592828517217
 30
0.0
 11
10.92106698503737
 21
9.230592828517188
 31
0.0
  0
SOLID
  5
1F37
330
1F2D
100
AcDbEntity
  8
0
100
AcDbTrace
 10
10.70996424916295
 20
9.810592828517201
 30
0.0
 11
9.300226982633077
 21
9.810592828517201
 31
0.0
 12
10.92106698503737
 22
9.230592828517188
 32
0.0
 13
9.089124246758657
 23
9.230592828517217
 33
0.0
  0
SOLID
  5
1F38
330
1F2D
100
AcDbEntity
  8
0
100
AcDbTrace
 10
10.00509561589801
 20
11.74720348209459
 30
0.0
 11
9.195740662004979
 21
12.71059282851718
 31
0.0
 12
8.772470142947028
 22
8.360592828517212
 32
0.0
 13
7.61247014294706
 23
8.360592828517212
 33
0.0
  0
LINE
  5
1F39
330
1F2D
100
AcDbEntity
  8
0
100
AcDbLine
 10
7.884380929084542
 20
6.035969168044175
 30
0.0
 11
7.884380929084542
 21
1.975969168044173
 31
0.0
  0
LINE
  5
1F3A
330
1F2D
100
AcDbEntity
  8
0
100
AcDbLine
 10
1.379424217804555
 20
6.035969168044175
 30
0.0
 11
1.379424217804555
 21
1.975969168044173
 31
0.0
  0
ARC
  5
1F3B
330
1F2D
100
AcDbEntity
  8
0
100
AcDbCircle
 10
4.859424217804573
 20
4.005969168044174
 30
0.0
 40
2.029999999999999
100
AcDbArc
 50
270.0
 51
90.0
  0
LINE
  5
1F3C
330
1F2D
100
AcDbEntity
  8
0
100
AcDbLine
 10
1.379424217804555
 20
1.975969168044173
 30
0.0
 11
4.859424217804573
 21
1.975969168044173
 31
0.0
  0
LWPOLYLINE
  5
1F3D
330
1F2D
100
AcDbEntity
  8
0
100
AcDbPolyline
 90
        4
 70
     1
 43
0.0
 10
3.119424217804564
 20
3.42596916804419
 10
4.279424217804532
 20
3.42596916804419
 42
1.0
 10
4.279424217804532
 20
4.585969168044158
 10
3.119424217804564
 20
4.585969168044158
  0
LINE
  5
1F3E
330
1F2D
100
AcDbEntity
  8
0
100
AcDbLine
 10
4.859424217804573
 20
6.035969168044175
 30
0.0
 11
1.379424217804555
 21
6.035969168044175
 31
0.0
  0
SOLID
  5
1F3F
330
1F2D
100
AcDbEntity
  8
0
100
AcDbTrace
 10
5.44359825511519
 20
12.71059282851718
 30
0.0
 11
5.878598255115136
 21
10.88759231326366
 31
0.0
 12
4.13859825511524
 22
10.03494631525621
 32
0.0
 13
4.646098255115177
 23
8.360592828517184
 33
0.0
  0
SOLID
  5
1F40
330
1F2D
100
AcDbEntity
  8
0
100
AcDbTrace
 10
3.63109825511519
 20
8.360592828517184
 30
0.0
 11
4.646098255115177
 21
8.360592828517184
 31
0.0
 12
4.13859825511524
 22
10.03494631525621
 32
0.0
 13
4.13859825511524
 23
10.03494631525621
 33
0.0
  0
LINE
  5
1F41
330
1F2D
100
AcDbEntity
  8
0
100
AcDbLine
 10
3.63109825511519
 20
8.360592828517184
 30
0.0
 11
4.646098255115177
 21
8.360592828517184
 31
0.0
  0
LWPOLYLINE
  5
1F42
330
1F2D
100
AcDbEntity
  8
0
100
AcDbPolyline
 90
        3
 70
     0
 43
0.0
 10
5.44359825511519
 20
12.71059282851718
 10
4.13859825511524
 20
10.03494631525621
 10
2.833598255115177
 20
12.71059282851718
  0
LINE
  5
1F43
330
1F2D
100
AcDbEntity
  8
0
100
AcDbLine
 10
1.383598255115131
 20
12.71059282851718
 30
0.0
 11
1.383598255115131
 21
8.360592828517184
 31
0.0
  0
SOLID
  5
1F44
330
1F2D
100
AcDbEntity
  8
0
100
AcDbTrace
 10
1.383598255115131
 20
12.71059282851718
 30
0.0
 11
2.833598255115177
 21
12.71059282851718
 31
0.0
 12
1.383598255115131
 22
8.360592828517184
 32
0.0
 13
2.398598255115231
 23
10.88759231326366
 33
0.0
  0
SOLID
  5
1F45
330
1F2D
100
AcDbEntity
  8
0
100
AcDbTrace
 10
2.398598255115231
 20
8.360592828517184
 30
0.0
 11
1.383598255115131
 21
8.360592828517184
 31
0.0
 12
2.398598255115231
 22
10.88759231326366
 32
0.0
 13
1.383598255115131
 23
12.71059282851718
 33
0.0
  0
SOLID
  5
1F46
330
1F2D
100
AcDbEntity
  8
0
100
AcDbTrace
 10
2.833598255115177
 20
12.71059282851718
 30
0.0
 11
2.398598255115231
 21
10.88759231326366
 31
0.0
 12
4.13859825511524
 22
10.03494631525621
 32
0.0
 13
3.63109825511519
 23
8.360592828517184
 33
0.0
  0
LINE
  5
1F47
330
1F2D
100
AcDbEntity
  8
0
100
AcDbLine
 10
1.383598255115131
 20
8.360592828517184
 30
0.0
 11
2.398598255115231
 21
8.360592828517184
 31
0.0
  0
LINE
  5
1F48
330
1F2D
100
AcDbEntity
  8
0
100
AcDbLine
 10
3.63109825511519
 20
8.360592828517184
 30
0.0
 11
2.398598255115231
 21
10.88759231326366
 31
0.0
  0
LINE
  5
1F49
330
1F2D
100
AcDbEntity
  8
0
100
AcDbLine
 10
2.398598255115231
 20
10.88759231326366
 30
0.0
 11
2.398598255115231
 21
8.360592828517184
 31
0.0
  0
LINE
  5
1F4A
330
1F2D
100
AcDbEntity
  8
0
100
AcDbLine
 10
2.833598255115177
 20
12.71059282851718
 30
0.0
 11
1.383598255115131
 21
12.71059282851718
 31
0.0
  0
SOLID
  5
1F4B
330
1F2D
100
AcDbEntity
  8
0
100
AcDbTrace
 10
5.44359825511519
 20
12.71059282851718
 30
0.0
 11
6.893598255115122
 21
12.71059282851718
 31
0.0
 12
5.878598255115136
 22
10.88759231326366
 32
0.0
 13
6.893598255115122
 23
8.360592828517184
 33
0.0
  0
SOLID
  5
1F4C
330
1F2D
100
AcDbEntity
  8
0
100
AcDbTrace
 10
5.878598255115136
 20
10.88759231326366
 30
0.0
 11
6.893598255115122
 21
12.71059282851718
 31
0.0
 12
5.878598255115136
 22
8.360592828517184
 32
0.0
 13
6.893598255115122
 23
8.360592828517184
 33
0.0
  0
LINE
  5
1F4D
330
1F2D
100
AcDbEntity
  8
0
100
AcDbLine
 10
6.893598255115122
 20
8.360592828517184
 30
0.0
 11
6.893598255115122
 21
12.71059282851718
 31
0.0
  0
LINE
  5
1F4E
330
1F2D
100
AcDbEntity
  8
0
100
AcDbLine
 10
7.61247014294706
 20
8.360592828517184
 30
0.0
 11
9.195740662004979
 21
12.71059282851718
 31
0.0
  0
LINE
  5
1F4F
330
1F2D
100
AcDbEntity
  8
0
100
AcDbLine
 10
5.878598255115136
 20
8.360592828517184
 30
0.0
 11
6.893598255115122
 21
8.360592828517184
 31
0.0
  0
LINE
  5
1F50
330
1F2D
100
AcDbEntity
  8
0
100
AcDbLine
 10
4.646098255115177
 20
8.360592828517184
 30
0.0
 11
5.878598255115136
 21
10.88759231326366
 31
0.0
  0
LINE
  5
1F51
330
1F2D
100
AcDbEntity
  8
0
100
AcDbLine
 10
5.878598255115136
 20
8.360592828517184
 30
0.0
 11
5.878598255115136
 21
10.88759231326366
 31
0.0
  0
LINE
  5
1F52
330
1F2D
100
AcDbEntity
  8
0
100
AcDbLine
 10
8.772470142947028
 20
8.360592828517184
 30
0.0
 11
9.089124246758657
 21
9.230592828517217
 31
0.0
  0
LINE
  5
1F53
330
1F2D
100
AcDbEntity
  8
0
100
AcDbLine
 10
7.61247014294706
 20
8.360592828517212
 30
0.0
 11
8.772470142947028
 21
8.360592828517212
 31
0.0
  0
LINE
  5
1F54
330
1F2D
100
AcDbEntity
  8
0
100
AcDbLine
 10
6.893598255115122
 20
12.71059282851718
 30
0.0
 11
5.44359825511519
 21
12.71059282851718
 31
0.0
  0
LINE
  5
1F55
330
1F2D
100
AcDbEntity
  8
0
100
AcDbLine
 10
30.4669081706591
 20
6.035969168044175
 30
0.0
 11
27.92751027088404
 21
6.035969168044175
 31
0.0
  0
LINE
  5
1F56
330
1F2D
100
AcDbEntity
  8
0
100
AcDbLine
 10
27.92751027088404
 20
1.975969168044173
 30
0.0
 11
31.48190817065908
 21
1.975969168044173
 31
0.0
  0
LWPOLYLINE
  5
1F57
330
1F2D
100
AcDbEntity
  8
0
100
AcDbPolyline
 90
        5
 70
     0
 43
0.0
 10
28.44544519149899
 20
4.585969168044158
 10
28.21751027088401
 20
4.585969168044158
 42
1.0
 10
28.21751027088401
 20
3.42596916804419
 10
29.37751027088398
 20
3.42596916804419
 10
29.37751027088398
 20
3.860969168044192
  0
HATCH
  5
1F58
330
1F2D
100
AcDbEntity
  8
0
100
AcDbHatch
 10
0.0
 20
0.0
 30
0.0
210
0.0
220
0.0
230
1.0
  2
SOLID
 70
     1
 71
     1
 91
        1
 92
        7
 72
     1
 73
     1
 93
       30
 10
28.67341124306463
 20
12.01874456392995
 42
-0.0652834005943262
 10
29.81524103351227
 20
11.91632330263147
 42
-0.037561805211131
 10
30.51120742076959
 20
11.73031819479517
 42
0.0
 10
30.51120742076959
 20
12.46917801985549
 42
0.085165026828194
 10
29.17885084518919
 20
12.75015113263723
 42
0.0636863138901518
 10
28.07838115867532
 20
12.6342383300252
 42
0.1041853080875486
 10
27.42708224929941
 20
12.24567797544496
 42
0.1366438800012546
 10
27.25068477520842
 20
11.94492843736006
 42
0.0582246878134562
 10
27.22128391483658
 20
11.26579054292044
 42
0.0559788316204981
 10
27.27535298911739
 20
11.0253713183586
 42
0.108394063957441
 10
27.72380710087762
 20
10.45068898243912
 42
0.0906019119173833
 10
28.41675028538924
 20
10.09735667935096
 42
0.0240156207773875
 10
29.14659366861336
 20
10.00926216675021
 42
-0.3041003465922973
 10
29.58411825799818
 20
9.701164184829087
 42
-0.1780750464554663
 10
29.52602013454316
 20
9.311034757463731
 42
-0.2705725069810039
 10
29.07278829053957
 20
9.074773117859981
 42
-0.0652834005944063
 10
27.93095850009056
 20
9.17719437915877
 42
-0.0375618052110583
 10
27.2349921128346
 20
9.36319948699483
 42
0.0
 10
27.2349921128346
 20
8.624339661934481
 42
0.0851650268282114
 10
28.56734868841528
 20
8.34336654915269
 42
0.0636863138901587
 10
29.66781837492926
 20
8.459279351764822
 42
0.104185308086929
 10
30.31911728430179
 20
8.847839706342101
 42
0.1366438800029011
 10
30.49551475839578
 20
9.148589244429926
 42
0.0582246878137179
 10
30.5249156187674
 20
9.827727138872596
 42
0.0559788316198116
 10
30.47084654448689
 20
10.06814636343143
 42
0.1083940639570978
 10
30.02239243272841
 20
10.64282869934942
 42
0.0906019119176942
 10
29.3294492482146
 20
10.99616100243908
 42
0.0240156207773517
 10
28.59960586499157
 20
11.0842555150397
 42
-0.3041003465927257
 10
28.16208127560601
 20
11.39235349696086
 42
-0.1780750464554168
 10
28.22017939906098
 20
11.78248292432612
 42
-0.2705725069810566
 97
       30
330
1FCE
330
1FCB
330
1FC8
330
1FDE
330
1FDF
330
1F59
330
1FB7
330
1FB8
330
1FB9
330
1FBA
330
1F5A
330
1FCF
330
1FD0
330
1FD1
330
1FD2
330
1F5B
330
1FBB
330
1FBC
330
1F5C
330
1FD3
330
1FCC
330
1FD9
330
1FDA
330
1FDB
330
1FCD
330
1FD4
330
1FD5
330
1FD6
330
1FD7
330
1FD8
 75
     0
 76
     1
 47
0.029836324778458
 98
        1
 10
28.12865518030921
 20
11.91682678765849
450
        0
451
        0
460
0.0
461
0.0
452
        0
462
0.0
453
        0
470

  0
ARC
  5
1F59
102
{ACAD_REACTORS
330
1F58
102
}
330
1F2D
100
AcDbEntity
  8
0
100
AcDbCircle
 10
28.67498912875083
 20
10.89408439636287
 30
0.0
 40
1.839586035715127
100
AcDbArc
 50
108.9241660710542
 51
132.7158447178865
  0
ARC
  5
1F5A
102
{ACAD_REACTORS
330
1F58
102
}
330
1F2D
100
AcDbEntity
  8
0
100
AcDbCircle
 10
29.03723373447626
 20
12.17038186676979
 30
0.0
 40
2.163893051484705
100
AcDbArc
 50
232.6289826384908
 51
253.33687314973
  0
ARC
  5
1F5B
102
{ACAD_REACTORS
330
1F58
102
}
330
1F2D
100
AcDbEntity
  8
0
100
AcDbCircle
 10
28.89241964789669
 20
13.47993662988443
 30
0.0
 40
4.408854546809234
100
AcDbArc
 50
257.4040038370662
 51
273.6651460924192
  0
ARC
  5
1F5C
102
{ACAD_REACTORS
330
1F58
102
}
330
1F2D
100
AcDbEntity
  8
0
100
AcDbCircle
 10
28.71997831450999
 20
12.36658799573033
 30
0.0
 40
4.026115573473278
100
AcDbArc
 50
248.3560010847983
 51
267.8274023014902
  0
LINE
  5
1F5D
330
1F2D
100
AcDbEntity
  8
0
100
AcDbLine
 10
19.04336733806796
 20
6.035969168044175
 30
0.0
 11
17.59336733806792
 21
6.035969168044175
 31
0.0
  0
LINE
  5
1F5E
330
1F2D
100
AcDbEntity
  8
0
100
AcDbLine
 10
17.88336733806788
 20
1.975969168044173
 30
0.0
 11
19.04336733806796
 21
1.975969168044173
 31
0.0
  0
LINE
  5
1F5F
330
1F2D
100
AcDbEntity
  8
0
100
AcDbLine
 10
19.4956378484499
 20
12.71059282851718
 30
0.0
 11
18.33563784844993
 21
12.71059282851718
 31
0.0
  0
LINE
  5
1F60
330
1F2D
100
AcDbEntity
  8
0
100
AcDbLine
 10
18.33563784844993
 20
8.360592828517184
 30
0.0
 11
19.4956378484499
 21
8.360592828517184
 31
0.0
  0
SOLID
  5
1F61
330
1F2D
100
AcDbEntity
  8
0
100
AcDbTrace
 10
19.4956378484499
 20
8.360592828517184
 30
0.0
 11
18.33563784844993
 21
8.360592828517184
 31
0.0
 12
19.4956378484499
 22
12.71059282851718
 32
0.0
 13
18.33563784844993
 23
12.71059282851718
 33
0.0
  0
LINE
  5
1F62
330
1F2D
100
AcDbEntity
  8
0
100
AcDbLine
 10
16.43336733806795
 20
4.295969168044194
 30
0.0
 11
17.59336733806792
 21
6.035969168044175
 31
0.0
  0
LINE
  5
1F63
330
1F2D
100
AcDbEntity
  8
0
100
AcDbLine
 10
15.27336733806798
 20
6.035969168044175
 30
0.0
 11
16.43336733806795
 21
4.295969168044194
 31
0.0
  0
LINE
  5
1F64
330
1F2D
100
AcDbEntity
  8
0
100
AcDbLine
 10
13.82336733806794
 20
6.035969168044175
 30
0.0
 11
13.82336733806794
 21
1.975969168044173
 31
0.0
  0
LINE
  5
1F65
330
1F2D
100
AcDbEntity
  8
0
100
AcDbLine
 10
12.37938092908455
 20
6.035969168044175
 30
0.0
 11
12.37938092908455
 21
5.165969168044171
 31
0.0
  0
LINE
  5
1F66
330
1F2D
100
AcDbEntity
  8
0
100
AcDbLine
 10
13.82336733806794
 20
1.975969168044173
 30
0.0
 11
14.9833673380679
 21
1.975969168044173
 31
0.0
  0
LINE
  5
1F67
330
1F2D
100
AcDbEntity
  8
0
100
AcDbLine
 10
9.624380929084551
 20
2.845969168044177
 30
0.0
 11
12.37938092908455
 21
2.845969168044177
 31
0.0
  0
LINE
  5
1F68
330
1F2D
100
AcDbEntity
  8
0
100
AcDbLine
 10
9.624380929084551
 20
3.715969168044182
 30
0.0
 11
11.9443809290846
 21
3.715969168044182
 31
0.0
  0
LINE
  5
1F69
330
1F2D
100
AcDbEntity
  8
0
100
AcDbLine
 10
11.9443809290846
 20
4.295969168044194
 30
0.0
 11
9.624380929084551
 21
4.295969168044194
 31
0.0
  0
LINE
  5
1F6A
330
1F2D
100
AcDbEntity
  8
0
100
AcDbLine
 10
12.37938092908455
 20
5.165969168044171
 30
0.0
 11
9.624380929084551
 21
5.165969168044171
 31
0.0
  0
LWPOLYLINE
  5
1F6B
330
1F2D
100
AcDbEntity
  8
0
100
AcDbPolyline
 90
        2
 70
     0
 43
0.0
 10
9.624380929084551
 20
3.715969168044182
 10
9.624380929084551
 20
2.845969168044177
  0
LWPOLYLINE
  5
1F6C
330
1F2D
100
AcDbEntity
  8
0
100
AcDbPolyline
 90
        2
 70
     0
 43
0.0
 10
9.624380929084551
 20
5.165969168044171
 10
9.624380929084551
 20
4.295969168044194
  0
LINE
  5
1F6D
330
1F2D
100
AcDbEntity
  8
0
100
AcDbLine
 10
12.37938092908455
 20
2.845969168044177
 30
0.0
 11
12.37938092908455
 21
1.975969168044173
 31
0.0
  0
LINE
  5
1F6E
330
1F2D
100
AcDbEntity
  8
0
100
AcDbLine
 10
11.9443809290846
 20
4.295969168044194
 30
0.0
 11
11.9443809290846
 21
3.715969168044182
 31
0.0
  0
LINE
  5
1F6F
330
1F2D
100
AcDbEntity
  8
0
100
AcDbLine
 10
14.9833673380679
 20
3.788469168044201
 30
0.0
 11
16.43336733806795
 21
1.975969168044173
 31
0.0
  0
LINE
  5
1F70
330
1F2D
100
AcDbEntity
  8
0
100
AcDbLine
 10
14.9833673380679
 20
3.788469168044201
 30
0.0
 11
14.9833673380679
 21
1.975969168044173
 31
0.0
  0
LINE
  5
1F71
330
1F2D
100
AcDbEntity
  8
0
100
AcDbLine
 10
16.43336733806795
 20
1.975969168044173
 30
0.0
 11
17.88336733806788
 21
3.788469168044144
 31
0.0
  0
LINE
  5
1F72
330
1F2D
100
AcDbEntity
  8
0
100
AcDbLine
 10
17.88336733806788
 20
3.788469168044144
 30
0.0
 11
17.88336733806788
 21
1.975969168044173
 31
0.0
  0
LINE
  5
1F73
330
1F2D
100
AcDbEntity
  8
0
100
AcDbLine
 10
15.27336733806787
 20
6.035969168044175
 30
0.0
 11
13.82336733806794
 21
6.035969168044175
 31
0.0
  0
LINE
  5
1F74
330
1F2D
100
AcDbEntity
  8
0
100
AcDbLine
 10
14.22367341168756
 20
12.71059282851718
 30
0.0
 11
13.06367341168759
 21
12.71059282851718
 31
0.0
  0
LINE
  5
1F75
330
1F2D
100
AcDbEntity
  8
0
100
AcDbLine
 10
13.06367341168759
 20
8.360592828517184
 30
0.0
 11
14.22367341168756
 21
8.360592828517184
 31
0.0
  0
SOLID
  5
1F76
330
1F2D
100
AcDbEntity
  8
0
100
AcDbTrace
 10
13.06367341168759
 20
12.71059282851718
 30
0.0
 11
14.22367341168756
 21
12.71059282851718
 31
0.0
 12
13.06367341168759
 22
8.360592828517184
 32
0.0
 13
14.22367341168756
 23
8.360592828517184
 33
0.0
  0
LINE
  5
1F77
330
1F2D
100
AcDbEntity
  8
0
100
AcDbLine
 10
13.06367341168759
 20
12.71059282851718
 30
0.0
 11
13.06367341168759
 21
8.360592828517184
 31
0.0
  0
LINE
  5
1F78
330
1F2D
100
AcDbEntity
  8
0
100
AcDbLine
 10
12.39772108884897
 20
8.360592828517184
 30
0.0
 11
10.81445056979105
 21
12.71059282851718
 31
0.0
  0
SOLID
  5
1F79
330
1F2D
100
AcDbEntity
  8
0
100
AcDbTrace
 10
10.81445056979105
 20
12.71059282851718
 30
0.0
 11
10.00509561589801
 21
11.74720348209459
 31
0.0
 12
12.39772108884897
 22
8.360592828517184
 32
0.0
 13
11.237721088849
 23
8.360592828517184
 33
0.0
  0
LINE
  5
1F7A
330
1F2D
100
AcDbEntity
  8
0
100
AcDbLine
 10
11.237721088849
 20
8.360592828517184
 30
0.0
 11
12.39772108884897
 21
8.360592828517184
 31
0.0
  0
LINE
  5
1F7B
330
1F2D
100
AcDbEntity
  8
0
100
AcDbLine
 10
11.237721088849
 20
8.360592828517184
 30
0.0
 11
10.92106698503737
 21
9.230592828517217
 31
0.0
  0
LINE
  5
1F7C
330
1F2D
100
AcDbEntity
  8
0
100
AcDbLine
 10
9.300226982633077
 20
9.810592828517201
 30
0.0
 11
10.70996424916295
 21
9.810592828517201
 31
0.0
  0
LINE
  5
1F7D
330
1F2D
100
AcDbEntity
  8
0
100
AcDbLine
 10
10.70996424916295
 20
9.810592828517201
 30
0.0
 11
10.00509561589801
 21
11.74720348209459
 31
0.0
  0
LINE
  5
1F7E
330
1F2D
100
AcDbEntity
  8
0
100
AcDbLine
 10
9.300226982633077
 20
9.810592828517201
 30
0.0
 11
10.00509561589801
 21
11.74720348209459
 31
0.0
  0
LINE
  5
1F7F
330
1F2D
100
AcDbEntity
  8
0
100
AcDbLine
 10
17.4136734116875
 20
12.71059282851718
 30
0.0
 11
17.4136734116875
 21
8.360592828517184
 31
0.0
  0
LINE
  5
1F80
330
1F2D
100
AcDbEntity
  8
0
100
AcDbLine
 10
18.33563784844993
 20
12.71059282851718
 30
0.0
 11
18.33563784844993
 21
8.360592828517184
 31
0.0
  0
SOLID
  5
1F81
330
1F2D
100
AcDbEntity
  8
0
100
AcDbTrace
 10
16.25367341168753
 20
12.71059282851718
 30
0.0
 11
17.4136734116875
 21
12.71059282851718
 31
0.0
 12
16.25367341168753
 22
8.360592828517184
 32
0.0
 13
17.4136734116875
 23
8.360592828517184
 33
0.0
  0
LINE
  5
1F82
330
1F2D
100
AcDbEntity
  8
0
100
AcDbLine
 10
16.25367341168753
 20
12.71059282851718
 30
0.0
 11
16.25367341168753
 21
10.03494631525621
 31
0.0
  0
LINE
  5
1F83
330
1F2D
100
AcDbEntity
  8
0
100
AcDbLine
 10
14.22367341168756
 20
12.71059282851718
 30
0.0
 11
16.25367341168753
 21
10.03494631525621
 31
0.0
  0
SOLID
  5
1F84
330
1F2D
100
AcDbEntity
  8
0
100
AcDbTrace
 10
14.22367341168756
 20
12.71059282851718
 30
0.0
 11
16.25367341168753
 21
10.03494631525621
 31
0.0
 12
14.22367341168756
 22
10.59029825623466
 32
0.0
 13
16.25367341168753
 23
8.360592828517184
 33
0.0
  0
LINE
  5
1F85
330
1F2D
100
AcDbEntity
  8
0
100
AcDbLine
 10
14.22367341168756
 20
10.59029825623466
 30
0.0
 11
16.25367341168753
 21
8.360592828517184
 31
0.0
  0
LINE
  5
1F86
330
1F2D
100
AcDbEntity
  8
0
100
AcDbLine
 10
14.22367341168756
 20
10.59029825623463
 30
0.0
 11
14.22367341168756
 21
8.360592828517184
 31
0.0
  0
LINE
  5
1F87
330
1F2D
100
AcDbEntity
  8
0
100
AcDbLine
 10
16.25367341168753
 20
8.360592828517184
 30
0.0
 11
17.4136734116875
 21
8.360592828517184
 31
0.0
  0
LINE
  5
1F88
330
1F2D
100
AcDbEntity
  8
0
100
AcDbLine
 10
17.4136734116875
 20
12.71059282851718
 30
0.0
 11
16.25367341168753
 21
12.71059282851718
 31
0.0
  0
ARC
  5
1F89
330
1F2D
100
AcDbEntity
  8
0
100
AcDbCircle
 10
27.92751027088404
 20
4.005969168044174
 30
0.0
 40
2.029999999999999
100
AcDbArc
 50
90.0
 51
270.0
  0
LWPOLYLINE
  5
1F8A
330
1F2D
100
AcDbEntity
  8
0
100
AcDbPolyline
 90
        6
 70
     0
 43
0.0
 10
22.04851350980532
 20
6.035969168044175
 10
21.61949524083802
 20
6.035969168044175
 10
19.87949524083801
 20
1.975969168044173
 10
21.61949524083802
 20
1.975969168044173
 10
21.87727301861575
 20
2.555969168044185
 10
23.68171746306023
 20
2.555969168044185
  0
LWPOLYLINE
  5
1F8B
330
1F2D
100
AcDbEntity
  8
0
100
AcDbPolyline
 90
        5
 70
     0
 43
0.0
 10
23.68171746306023
 20
2.555969168044185
 10
23.93949524083807
 20
1.975969168044173
 10
25.67949524083808
 20
1.975969168044173
 10
23.93949524083807
 20
6.035969168044175
 10
22.90326944084829
 20
6.035969168044175
  0
LINE
  5
1F8C
330
1F2D
100
AcDbEntity
  8
0
100
AcDbLine
 10
19.04336733806796
 20
6.035969168044175
 30
0.0
 11
19.04336733806796
 21
1.975969168044173
 31
0.0
  0
LINE
  5
1F8D
330
1F2D
100
AcDbEntity
  8
0
100
AcDbLine
 10
25.67949524083808
 20
1.975969168044173
 30
0.0
 11
23.93949524083807
 21
6.035969168044175
 31
0.0
  0
LINE
  5
1F8E
330
1F2D
100
AcDbEntity
  8
0
100
AcDbLine
 10
23.93949524083807
 20
6.035969168044175
 30
0.0
 11
25.67949524083808
 21
1.975969168044173
 31
0.0
  0
LINE
  5
1F8F
330
1F2D
100
AcDbEntity
  8
0
100
AcDbLine
 10
21.61949524083802
 20
6.035969168044175
 30
0.0
 11
19.87949524083801
 21
1.975969168044173
 31
0.0
  0
LINE
  5
1F90
330
1F2D
100
AcDbEntity
  8
0
100
AcDbLine
 10
19.87949524083801
 20
1.975969168044173
 30
0.0
 11
21.61949524083802
 21
6.035969168044175
 31
0.0
  0
LINE
  5
1F91
330
1F2D
100
AcDbEntity
  8
0
100
AcDbLine
 10
21.87727301861575
 20
2.555969168044185
 30
0.0
 11
23.68171746306023
 21
2.555969168044185
 31
0.0
  0
LINE
  5
1F92
330
1F2D
100
AcDbEntity
  8
0
100
AcDbLine
 10
22.77949524083799
 20
4.585969168044158
 30
0.0
 11
23.38527301861579
 21
3.222969168044159
 31
0.0
  0
LINE
  5
1F93
330
1F2D
100
AcDbEntity
  8
0
100
AcDbLine
 10
22.17371746306019
 20
3.222969168044159
 30
0.0
 11
23.38527301861579
 21
3.222969168044159
 31
0.0
  0
LINE
  5
1F94
330
1F2D
100
AcDbEntity
  8
0
100
AcDbLine
 10
21.87727301861575
 20
2.555969168044185
 30
0.0
 11
23.68171746306023
 21
2.555969168044185
 31
0.0
  0
LINE
  5
1F95
330
1F2D
100
AcDbEntity
  8
0
100
AcDbLine
 10
19.87949524083801
 20
1.975969168044173
 30
0.0
 11
21.61949524083802
 21
1.975969168044173
 31
0.0
  0
LINE
  5
1F96
330
1F2D
100
AcDbEntity
  8
0
100
AcDbLine
 10
19.87949524083801
 20
1.975969168044173
 30
0.0
 11
21.61949524083802
 21
1.975969168044173
 31
0.0
  0
LINE
  5
1F97
330
1F2D
100
AcDbEntity
  8
0
100
AcDbLine
 10
21.61949524083802
 20
1.975969168044173
 30
0.0
 11
21.87727301861575
 21
2.555969168044185
 31
0.0
  0
LINE
  5
1F98
330
1F2D
100
AcDbEntity
  8
0
100
AcDbLine
 10
22.17371746306019
 20
3.222969168044159
 30
0.0
 11
22.77949524083799
 21
4.585969168044158
 31
0.0
  0
LINE
  5
1F99
330
1F2D
100
AcDbEntity
  8
0
100
AcDbLine
 10
21.61949524083802
 20
1.975969168044173
 30
0.0
 11
21.87727301861575
 21
2.555969168044185
 31
0.0
  0
LINE
  5
1F9A
330
1F2D
100
AcDbEntity
  8
0
100
AcDbLine
 10
23.93949524083807
 20
1.975969168044173
 30
0.0
 11
25.67949524083808
 21
1.975969168044173
 31
0.0
  0
LINE
  5
1F9B
330
1F2D
100
AcDbEntity
  8
0
100
AcDbLine
 10
23.93949524083807
 20
1.975969168044173
 30
0.0
 11
25.67949524083808
 21
1.975969168044173
 31
0.0
  0
LINE
  5
1F9C
330
1F2D
100
AcDbEntity
  8
0
100
AcDbLine
 10
23.68171746306023
 20
2.555969168044185
 30
0.0
 11
23.93949524083807
 21
1.975969168044173
 31
0.0
  0
LINE
  5
1F9D
330
1F2D
100
AcDbEntity
  8
0
100
AcDbLine
 10
23.68171746306023
 20
2.555969168044185
 30
0.0
 11
23.93949524083807
 21
1.975969168044173
 31
0.0
  0
LINE
  5
1F9E
330
1F2D
100
AcDbEntity
  8
0
100
AcDbLine
 10
23.93949524083807
 20
6.035969168044175
 30
0.0
 11
22.96221806301177
 21
6.035969168044175
 31
0.0
  0
LINE
  5
1F9F
330
1F2D
100
AcDbEntity
  8
0
100
AcDbLine
 10
21.61949524083802
 20
6.035969168044175
 30
0.0
 11
23.93949524083807
 21
6.035969168044175
 31
0.0
  0
LINE
  5
1FA0
330
1F2D
100
AcDbEntity
  8
0
100
AcDbLine
 10
22.68563784844996
 20
12.71059282851718
 30
0.0
 11
22.68563784844996
 21
8.360592828517184
 31
0.0
  0
SOLID
  5
1FA1
330
1F2D
100
AcDbEntity
  8
0
100
AcDbTrace
 10
19.4956378484499
 20
12.71059282851718
 30
0.0
 11
21.52563784844999
 21
10.03494631525621
 31
0.0
 12
19.4956378484499
 22
10.59029825623466
 32
0.0
 13
21.52563784844999
 23
8.360592828517184
 33
0.0
  0
SOLID
  5
1FA2
330
1F2D
100
AcDbEntity
  8
0
100
AcDbTrace
 10
21.52563784844999
 20
12.71059282851718
 30
0.0
 11
22.68563784844996
 21
12.71059282851718
 31
0.0
 12
21.52563784844999
 22
8.360592828517184
 32
0.0
 13
22.68563784844996
 23
8.360592828517184
 33
0.0
  0
LINE
  5
1FA3
330
1F2D
100
AcDbEntity
  8
0
100
AcDbLine
 10
19.4956378484499
 20
12.71059282851718
 30
0.0
 11
21.52563784844999
 21
10.03494631525621
 31
0.0
  0
LINE
  5
1FA4
330
1F2D
100
AcDbEntity
  8
0
100
AcDbLine
 10
21.52563784844999
 20
12.71059282851718
 30
0.0
 11
21.52563784844999
 21
10.03494631525621
 31
0.0
  0
LINE
  5
1FA5
330
1F2D
100
AcDbEntity
  8
0
100
AcDbLine
 10
19.4956378484499
 20
10.59029825623466
 30
0.0
 11
21.52563784844999
 21
8.360592828517184
 31
0.0
  0
LINE
  5
1FA6
330
1F2D
100
AcDbEntity
  8
0
100
AcDbLine
 10
19.4956378484499
 20
10.59029825623463
 30
0.0
 11
19.4956378484499
 21
8.360592828517184
 31
0.0
  0
LINE
  5
1FA7
330
1F2D
100
AcDbEntity
  8
0
100
AcDbLine
 10
21.52563784844999
 20
8.360592828517184
 30
0.0
 11
22.68563784844996
 21
8.360592828517184
 31
0.0
  0
LINE
  5
1FA8
330
1F2D
100
AcDbEntity
  8
0
100
AcDbLine
 10
22.34325690052201
 20
6.035969168044175
 30
0.0
 11
21.61949524083802
 21
6.035969168044175
 31
0.0
  0
LINE
  5
1FA9
330
1F2D
100
AcDbEntity
  8
0
100
AcDbLine
 10
22.68563784844996
 20
12.71059282851718
 30
0.0
 11
21.52563784844999
 21
12.71059282851718
 31
0.0
  0
SOLID
  5
1FAA
330
1F2D
100
AcDbEntity
  8
0
100
AcDbTrace
 10
24.57232746314064
 20
11.84059282851717
 30
0.0
 11
26.45732746314063
 21
11.84059282851717
 31
0.0
 12
23.55732746314054
 22
12.71059282851718
 32
0.0
 13
26.45732746314063
 23
12.71059282851718
 33
0.0
  0
LINE
  5
1FAB
330
1F2D
100
AcDbEntity
  8
0
100
AcDbLine
 10
26.45732746314063
 20
12.71059282851718
 30
0.0
 11
26.45732746314063
 21
11.84059282851717
 31
0.0
  0
LINE
  5
1FAC
330
1F2D
100
AcDbEntity
  8
0
100
AcDbLine
 10
23.55732746314054
 20
12.71059282851718
 30
0.0
 11
23.55732746314054
 21
8.360592828517184
 31
0.0
  0
SOLID
  5
1FAD
330
1F2D
100
AcDbEntity
  8
0
100
AcDbTrace
 10
23.55732746314054
 20
12.71059282851718
 30
0.0
 11
23.55732746314054
 21
8.360592828517184
 31
0.0
 12
24.57232746314064
 22
11.84059282851717
 32
0.0
 13
24.57232746314064
 23
9.230592828517188
 33
0.0
  0
LINE
  5
1FAE
330
1F2D
100
AcDbEntity
  8
0
100
AcDbLine
 10
26.45732746314063
 20
11.84059282851717
 30
0.0
 11
24.57232746314053
 21
11.84059282851717
 31
0.0
  0
LINE
  5
1FAF
330
1F2D
100
AcDbEntity
  8
0
100
AcDbLine
 10
23.55732746314054
 20
8.360592828517184
 30
0.0
 11
26.45732746314063
 21
8.360592828517184
 31
0.0
  0
LINE
  5
1FB0
330
1F2D
100
AcDbEntity
  8
0
100
AcDbLine
 10
24.57232746314064
 20
9.230592828517188
 30
0.0
 11
26.45732746314063
 21
9.230592828517188
 31
0.0
  0
LINE
  5
1FB1
330
1F2D
100
AcDbEntity
  8
0
100
AcDbLine
 10
24.57232746314064
 20
10.18759282851721
 30
0.0
 11
26.45732746314063
 21
10.18759282851721
 31
0.0
  0
LINE
  5
1FB2
330
1F2D
100
AcDbEntity
  8
0
100
AcDbLine
 10
26.45732746314063
 20
10.88359282851718
 30
0.0
 11
24.57232746314064
 21
10.88359282851718
 31
0.0
  0
SOLID
  5
1FB3
330
1F2D
100
AcDbEntity
  8
0
100
AcDbTrace
 10
26.45732746314063
 20
10.88359282851718
 30
0.0
 11
26.45732746314063
 21
10.18759282851721
 31
0.0
 12
24.57232746314064
 22
10.88359282851718
 32
0.0
 13
24.57232746314064
 23
10.18759282851721
 33
0.0
  0
SOLID
  5
1FB4
330
1F2D
100
AcDbEntity
  8
0
100
AcDbTrace
 10
26.45732746314063
 20
9.230592828517188
 30
0.0
 11
26.45732746314063
 21
8.360592828517184
 31
0.0
 12
24.57232746314064
 22
9.230592828517188
 32
0.0
 13
23.55732746314054
 23
8.360592828517184
 33
0.0
  0
LINE
  5
1FB5
330
1F2D
100
AcDbEntity
  8
0
100
AcDbLine
 10
24.57232746314064
 20
10.18759282851721
 30
0.0
 11
24.57232746314064
 21
9.230592828517188
 31
0.0
  0
LINE
  5
1FB6
330
1F2D
100
AcDbEntity
  8
0
100
AcDbLine
 10
24.57232746314064
 20
11.84059282851717
 30
0.0
 11
24.57232746314064
 21
10.88359282851718
 31
0.0
  0
ARC
  5
1FB7
102
{ACAD_REACTORS
330
1F58
102
}
330
1F2D
100
AcDbEntity
  8
0
100
AcDbCircle
 10
27.87885295336951
 20
11.77859699928532
 30
0.0
 40
0.6498164412710881
100
AcDbArc
 50
134.0454032738328
 51
165.1691195883342
  0
ARC
  5
1FB8
102
{ACAD_REACTORS
330
1F58
102
}
330
1F2D
100
AcDbEntity
  8
0
100
AcDbCircle
 10
30.1421207486225
 20
11.47954864771293
 30
0.0
 40
2.928648209834197
100
AcDbArc
 50
170.856597395888
 51
181.6695435531189
  0
ARC
  5
1FB9
102
{ACAD_REACTORS
330
1F58
102
}
330
1F2D
100
AcDbEntity
  8
0
100
AcDbCircle
 10
28.31865983294147
 20
11.38629532333698
 30
0.0
 40
1.103972512221106
100
AcDbArc
 50
179.5885658598939
 51
199.0826692789739
  0
ARC
  5
1FBA
102
{ACAD_REACTORS
330
1F58
102
}
330
1F2D
100
AcDbEntity
  8
0
100
AcDbCircle
 10
28.80945397967927
 20
11.76019198691281
 30
0.0
 40
1.701007720199239
100
AcDbArc
 50
205.5940045082651
 51
230.3394820629443
  0
ARC
  5
1FBB
102
{ACAD_REACTORS
330
1F58
102
}
330
1F2D
100
AcDbEntity
  8
0
100
AcDbCircle
 10
28.81922230119965
 20
13.89580299676345
 30
0.0
 40
4.801487255683797
100
AcDbArc
 50
250.7345188126701
 51
259.3390053129418
  0
LINE
  5
1FBC
102
{ACAD_REACTORS
330
1F58
102
}
330
1F2D
100
AcDbEntity
  8
0
100
AcDbLine
 10
27.2349921128346
 20
8.62433966193447
 30
0.0
 11
27.2349921128346
 21
9.363199486994801
 31
0.0
  0
LINE
  5
1FBD
330
1F2D
100
AcDbEntity
  8
0
100
AcDbLine
 10
26.45732746314063
 20
9.230592828517188
 30
0.0
 11
26.45732746314063
 21
8.360592828517184
 31
0.0
  0
LINE
  5
1FBE
330
1F2D
100
AcDbEntity
  8
0
100
AcDbLine
 10
26.45732746314063
 20
10.88359282851718
 30
0.0
 11
26.45732746314063
 21
10.18759282851721
 31
0.0
  0
LINE
  5
1FBF
330
1F2D
100
AcDbEntity
  8
0
100
AcDbLine
 10
26.45732746314063
 20
12.71059282851718
 30
0.0
 11
23.55732746314054
 21
12.71059282851718
 31
0.0
  0
LINE
  5
1FC0
330
1F2D
100
AcDbEntity
  8
0
100
AcDbLine
 10
30.4669081706591
 20
4.585969168044186
 30
0.0
 11
30.4669081706591
 21
6.035969168044175
 31
0.0
  0
LINE
  5
1FC1
330
1F2D
100
AcDbEntity
  8
0
100
AcDbLine
 10
29.37751027088398
 20
3.860969168044192
 30
0.0
 11
31.48190817065908
 21
3.860969168044192
 31
0.0
  0
LWPOLYLINE
  5
1FC2
330
1F2D
100
AcDbEntity
  8
0
100
AcDbPolyline
 90
        2
 70
     0
 43
0.0
 10
30.4669081706591
 20
4.585969168044158
 10
28.21751027088401
 20
4.585969168044158
 42
1.0
  0
LINE
  5
1FC3
330
1F2D
100
AcDbEntity
  8
0
100
AcDbLine
 10
31.48190817065908
 20
1.975969168044173
 30
0.0
 11
31.48190817065908
 21
3.860969168044192
 31
0.0
  0
LINE
  5
1FC4
330
1F2D
100
AcDbEntity
  8
0
100
AcDbLine
 10
32.95715850452864
 20
12.71059282851718
 30
0.0
 11
31.50715850452871
 21
12.71059282851718
 31
0.0
  0
LINE
  5
1FC5
330
1F2D
100
AcDbEntity
  8
0
100
AcDbLine
 10
33.75465850452865
 20
8.360592828517184
 30
0.0
 11
32.52215850452869
 21
10.88759231326366
 31
0.0
  0
SOLID
  5
1FC6
330
1F2D
100
AcDbEntity
  8
0
100
AcDbTrace
 10
32.95715850452864
 20
12.71059282851718
 30
0.0
 11
32.52215850452869
 21
10.88759231326366
 31
0.0
 12
34.2621585045287
 22
10.03494631525621
 32
0.0
 13
33.75465850452865
 23
8.360592828517184
 33
0.0
  0
SOLID
  5
1FC7
330
1F2D
100
AcDbEntity
  8
0
100
AcDbTrace
 10
31.50715850452871
 20
12.71059282851718
 30
0.0
 11
32.95715850452864
 21
12.71059282851718
 31
0.0
 12
31.50715850452871
 22
8.360592828517184
 32
0.0
 13
32.52215850452869
 23
10.88759231326366
 33
0.0
  0
LINE
  5
1FC8
102
{ACAD_REACTORS
330
1F58
102
}
330
1F2D
100
AcDbEntity
  8
0
100
AcDbLine
 10
30.51120742076959
 20
12.46917801985546
 30
0.0
 11
30.51120742076959
 21
11.73031819479513
 31
0.0
  0
SOLID
  5
1FC9
330
1F2D
100
AcDbEntity
  8
0
100
AcDbTrace
 10
32.52215850452869
 20
8.360592828517184
 30
0.0
 11
31.50715850452871
 21
8.360592828517184
 31
0.0
 12
32.52215850452869
 22
10.88759231326366
 32
0.0
 13
31.50715850452871
 23
12.71059282851718
 33
0.0
  0
LINE
  5
1FCA
330
1F2D
100
AcDbEntity
  8
0
100
AcDbLine
 10
31.50715850452871
 20
12.71059282851718
 30
0.0
 11
31.50715850452871
 21
8.360592828517184
 31
0.0
  0
ARC
  5
1FCB
102
{ACAD_REACTORS
330
1F58
102
}
330
1F2D
100
AcDbEntity
  8
0
100
AcDbCircle
 10
28.92697723240467
 20
7.197714685026511
 30
0.0
 40
4.801487255683797
100
AcDbArc
 50
70.73451881267006
 51
79.33900531294175
  0
ARC
  5
1FCC
102
{ACAD_REACTORS
330
1F58
102
}
330
1F2D
100
AcDbEntity
  8
0
100
AcDbCircle
 10
29.07121040485349
 20
10.19943328542706
 30
0.0
 40
1.839586035715127
100
AcDbArc
 50
288.9241660710542
 51
312.7158447178866
  0
ARC
  5
1FCD
102
{ACAD_REACTORS
330
1F58
102
}
330
1F2D
100
AcDbEntity
  8
0
100
AcDbCircle
 10
28.93674555392504
 20
9.333325694877146
 30
0.0
 40
1.701007720199239
100
AcDbArc
 50
25.59400450827578
 51
50.33948206294429
  0
ARC
  5
1FCE
102
{ACAD_REACTORS
330
1F58
102
}
330
1F2D
100
AcDbEntity
  8
0
100
AcDbCircle
 10
28.85377988570751
 20
7.613581051905498
 30
0.0
 40
4.408854546809234
100
AcDbArc
 50
77.4040038370662
 51
93.66514609241917
  0
ARC
  5
1FCF
102
{ACAD_REACTORS
330
1F58
102
}
330
1F2D
100
AcDbEntity
  8
0
100
AcDbCircle
 10
29.69819735961669
 20
17.64651774341899
 30
0.0
 40
7.657149559417455
100
AcDbArc
 50
260.3660466637705
 51
266.2004658575498
  0
ARC
  5
1FD0
102
{ACAD_REACTORS
330
1F58
102
}
330
1F2D
100
AcDbEntity
  8
0
100
AcDbCircle
 10
29.13549269483819
 20
9.528788343261282
 30
0.0
 40
0.480602046059761
100
AcDbArc
 50
21.01832223341452
 51
83.39296852603315
  0
ARC
  5
1FD1
102
{ACAD_REACTORS
330
1F58
102
}
330
1F2D
100
AcDbEntity
  8
0
100
AcDbCircle
 10
29.0247336032118
 20
9.585077114453667
 30
0.0
 40
0.5713032469003038
100
AcDbArc
 50
331.3355395479445
 51
11.72396983130695
  0
ARC
  5
1FD2
102
{ACAD_REACTORS
330
1F58
102
}
330
1F2D
100
AcDbEntity
  8
0
100
AcDbCircle
 10
29.09708778920519
 20
9.581017072636512
 30
0.0
 40
0.5068268021555121
100
AcDbArc
 50
278.7578663398666
 51
327.812512247667
  0
ARC
  5
1FD3
102
{ACAD_REACTORS
330
1F58
102
}
330
1F2D
100
AcDbEntity
  8
0
100
AcDbCircle
 10
28.66441447765753
 20
12.70368468765349
 30
0.0
 40
4.361398403766882
100
AcDbArc
 50
268.7247394624481
 51
283.3008820411698
  0
ARC
  5
1FD4
102
{ACAD_REACTORS
330
1F58
102
}
330
1F2D
100
AcDbEntity
  8
0
100
AcDbCircle
 10
28.70896579912794
 20
8.923135815020145
 30
0.0
 40
2.163893051484705
100
AcDbArc
 50
52.62898263849079
 51
73.33687314973002
  0
ARC
  5
1FD5
102
{ACAD_REACTORS
330
1F58
102
}
330
1F2D
100
AcDbEntity
  8
0
100
AcDbCircle
 10
28.04800217398763
 20
3.446999938370964
 30
0.0
 40
7.657149559417455
100
AcDbArc
 50
80.3660466637705
 51
86.20046585754984
  0
ARC
  5
1FD6
102
{ACAD_REACTORS
330
1F58
102
}
330
1F2D
100
AcDbEntity
  8
0
100
AcDbCircle
 10
28.61070683876601
 20
11.56472933852865
 30
0.0
 40
0.480602046059761
100
AcDbArc
 50
201.0183222334251
 51
263.3929685260331
  0
ARC
  5
1FD7
102
{ACAD_REACTORS
330
1F58
102
}
330
1F2D
100
AcDbEntity
  8
0
100
AcDbCircle
 10
28.7214659303924
 20
11.50844056733626
 30
0.0
 40
0.5713032469003038
100
AcDbArc
 50
151.3355395479444
 51
191.7239698313146
  0
ARC
  5
1FD8
102
{ACAD_REACTORS
330
1F58
102
}
330
1F2D
100
AcDbEntity
  8
0
100
AcDbCircle
 10
28.64911174439901
 20
11.51250060915342
 30
0.0
 40
0.5068268021555121
100
AcDbArc
 50
98.75786633986663
 51
147.812512247667
  0
ARC
  5
1FD9
102
{ACAD_REACTORS
330
1F58
102
}
330
1F2D
100
AcDbEntity
  8
0
100
AcDbCircle
 10
29.8673465802347
 20
9.314920682504634
 30
0.0
 40
0.6498164412710881
100
AcDbArc
 50
314.0454032738329
 51
345.1691195883342
  0
ARC
  5
1FDA
102
{ACAD_REACTORS
330
1F58
102
}
330
1F2D
100
AcDbEntity
  8
0
100
AcDbCircle
 10
27.6040787849817
 20
9.613969034077001
 30
0.0
 40
2.928648209834197
100
AcDbArc
 50
350.856597395888
 51
1.669543553118977
  0
ARC
  5
1FDB
102
{ACAD_REACTORS
330
1F58
102
}
330
1F2D
100
AcDbEntity
  8
0
100
AcDbCircle
 10
29.42753970066285
 20
9.707222358452952
 30
0.0
 40
1.103972512221106
100
AcDbArc
 50
359.5885658598939
 51
19.08266927897393
  0
LINE
  5
1FDC
330
1F2D
100
AcDbEntity
  8
0
100
AcDbLine
 10
32.52215850452869
 20
10.88759231326366
 30
0.0
 11
32.52215850452869
 21
8.360592828517184
 31
0.0
  0
LINE
  5
1FDD
330
1F2D
100
AcDbEntity
  8
0
100
AcDbLine
 10
31.50715850452871
 20
8.360592828517184
 30
0.0
 11
32.52215850452869
 21
8.360592828517184
 31
0.0
  0
ARC
  5
1FDE
102
{ACAD_REACTORS
330
1F58
102
}
330
1F2D
100
AcDbEntity
  8
0
100
AcDbCircle
 10
29.02622121909433
 20
8.726929686059605
 30
0.0
 40
4.026115573473278
100
AcDbArc
 50
68.35600108479828
 51
87.82740230149016
  0
ARC
  5
1FDF
102
{ACAD_REACTORS
330
1F58
102
}
330
1F2D
100
AcDbEntity
  8
0
100
AcDbCircle
 10
29.08178505594667
 20
8.38983299413644
 30
0.0
 40
4.361398403766882
100
AcDbArc
 50
88.72473946244808
 51
103.3008820411699
  0
LWPOLYLINE
  5
1FE0
330
1F2D
100
AcDbEntity
  8
0
100
AcDbPolyline
 90
        3
 70
     0
 43
0.0
 10
35.56715850452865
 20
12.71059282851718
 10
34.2621585045287
 20
10.03494631525621
 10
32.95715850452864
 20
12.71059282851718
  0
SOLID
  5
1FE1
330
1F2D
100
AcDbEntity
  8
0
100
AcDbTrace
 10
36.00215850452871
 20
10.88759231326366
 30
0.0
 11
37.01715850452869
 21
12.71059282851718
 31
0.0
 12
36.00215850452871
 22
8.360592828517184
 32
0.0
 13
37.01715850452869
 23
8.360592828517184
 33
0.0
  0
SOLID
  5
1FE2
330
1F2D
100
AcDbEntity
  8
0
100
AcDbTrace
 10
35.56715850452865
 20
12.71059282851718
 30
0.0
 11
37.01715850452869
 21
12.71059282851718
 31
0.0
 12
36.00215850452871
 22
10.88759231326366
 32
0.0
 13
37.01715850452869
 23
8.360592828517184
 33
0.0
  0
SOLID
  5
1FE3
330
1F2D
100
AcDbEntity
  8
0
100
AcDbTrace
 10
35.56715850452865
 20
12.71059282851718
 30
0.0
 11
36.00215850452871
 21
10.88759231326366
 31
0.0
 12
34.2621585045287
 22
10.03494631525621
 32
0.0
 13
34.76965850452863
 23
8.360592828517184
 33
0.0
  0
LINE
  5
1FE4
330
1F2D
100
AcDbEntity
  8
0
100
AcDbLine
 10
37.01715850452869
 20
8.360592828517184
 30
0.0
 11
37.01715850452869
 21
12.71059282851718
 31
0.0
  0
LINE
  5
1FE5
330
1F2D
100
AcDbEntity
  8
0
100
AcDbLine
 10
34.76965850452863
 20
8.360592828517184
 30
0.0
 11
36.00215850452871
 21
10.88759231326366
 31
0.0
  0
SOLID
  5
1FE6
330
1F2D
100
AcDbEntity
  8
0
100
AcDbTrace
 10
33.75465850452865
 20
8.360592828517184
 30
0.0
 11
34.76965850452863
 21
8.360592828517184
 31
0.0
 12
34.2621585045287
 22
10.03494631525621
 32
0.0
 13
34.2621585045287
 23
10.03494631525621
 33
0.0
  0
LINE
  5
1FE7
330
1F2D
100
AcDbEntity
  8
0
100
AcDbLine
 10
33.75465850452865
 20
8.360592828517184
 30
0.0
 11
34.76965850452863
 21
8.360592828517184
 31
0.0
  0
LINE
  5
1FE8
330
1F2D
100
AcDbEntity
  8
0
100
AcDbLine
 10
36.00215850452871
 20
8.360592828517184
 30
0.0
 11
36.00215850452871
 21
10.88759231326366
 31
0.0
  0
LINE
  5
1FE9
330
1F2D
100
AcDbEntity
  8
0
100
AcDbLine
 10
36.00215850452871
 20
8.360592828517184
 30
0.0
 11
37.01715850452869
 21
8.360592828517184
 31
0.0
  0
LINE
  5
1FEA
330
1F2D
100
AcDbEntity
  8
0
100
AcDbLine
 10
37.01715850452869
 20
12.71059282851718
 30
0.0
 11
35.56715850452865
 21
12.71059282851718
 31
0.0
  0
LINE
  5
1FEB
330
1F2D
100
AcDbEntity
  8
0
100
AcDbLine
 10
41.36128133826246
 20
8.360592828517184
 30
0.0
 11
42.52128133826253
 21
8.360592828517184
 31
0.0
  0
SOLID
  5
1FEC
330
1F2D
100
AcDbEntity
  8
0
100
AcDbTrace
 10
40.9380108192045
 20
12.71059282851718
 30
0.0
 11
40.12865586531158
 21
11.74720348209459
 31
0.0
 12
42.52128133826253
 22
8.360592828517184
 32
0.0
 13
41.36128133826256
 23
8.360592828517184
 33
0.0
  0
LINE
  5
1FED
330
1F2D
100
AcDbEntity
  8
0
100
AcDbLine
 10
42.52128133826253
 20
8.360592828517184
 30
0.0
 11
40.9380108192045
 21
12.71059282851718
 31
0.0
  0
LINE
  5
1FEE
330
1F2D
100
AcDbEntity
  8
0
100
AcDbLine
 10
37.73603039236052
 20
8.360592828517184
 30
0.0
 11
39.31930091141855
 21
12.71059282851718
 31
0.0
  0
SOLID
  5
1FEF
330
1F2D
100
AcDbEntity
  8
0
100
AcDbTrace
 10
40.12865586531158
 20
11.74720348209459
 30
0.0
 11
39.31930091141855
 21
12.71059282851718
 31
0.0
 12
38.8960303923606
 22
8.360592828517212
 32
0.0
 13
37.73603039236052
 23
8.360592828517212
 33
0.0
  0
SOLID
  5
1FF0
330
1F2D
100
AcDbEntity
  8
0
100
AcDbTrace
 10
39.31930091141855
 20
12.71059282851718
 30
0.0
 11
40.9380108192045
 21
12.71059282851718
 31
0.0
 12
40.12865586531158
 22
11.74720348209459
 32
0.0
 13
40.12865586531158
 23
11.74720348209459
 33
0.0
  0
LINE
  5
1FF1
330
1F2D
100
AcDbEntity
  8
0
100
AcDbLine
 10
39.42378723204654
 20
9.810592828517201
 30
0.0
 11
40.83352449857652
 21
9.810592828517201
 31
0.0
  0
LINE
  5
1FF2
330
1F2D
100
AcDbEntity
  8
0
100
AcDbLine
 10
39.42378723204654
 20
9.810592828517201
 30
0.0
 11
40.12865586531158
 21
11.74720348209459
 31
0.0
  0
SOLID
  5
1FF3
330
1F2D
100
AcDbEntity
  8
0
100
AcDbTrace
 10
40.83352449857652
 20
9.810592828517201
 30
0.0
 11
39.42378723204654
 21
9.810592828517201
 31
0.0
 12
41.04462723445094
 22
9.230592828517188
 32
0.0
 13
39.21268449617212
 23
9.230592828517217
 33
0.0
  0
LINE
  5
1FF4
330
1F2D
100
AcDbEntity
  8
0
100
AcDbLine
 10
39.21268449617212
 20
9.230592828517217
 30
0.0
 11
41.04462723445094
 21
9.230592828517188
 31
0.0
  0
LINE
  5
1FF5
330
1F2D
100
AcDbEntity
  8
0
100
AcDbLine
 10
38.89603039236049
 20
8.360592828517184
 30
0.0
 11
39.21268449617212
 21
9.230592828517217
 31
0.0
  0
LINE
  5
1FF6
330
1F2D
100
AcDbEntity
  8
0
100
AcDbLine
 10
37.73603039236052
 20
8.360592828517212
 30
0.0
 11
38.8960303923606
 21
8.360592828517212
 31
0.0
  0
LINE
  5
1FF7
330
1F2D
100
AcDbEntity
  8
0
100
AcDbLine
 10
41.36128133826256
 20
8.360592828517184
 30
0.0
 11
41.04462723445094
 21
9.230592828517217
 31
0.0
  0
LINE
  5
1FF8
330
1F2D
100
AcDbEntity
  8
0
100
AcDbLine
 10
40.83352449857652
 20
9.810592828517201
 30
0.0
 11
40.12865586531158
 21
11.74720348209459
 31
0.0
  0
LINE
  5
1FF9
330
1F2D
100
AcDbEntity
  8
0
100
AcDbLine
 10
39.31930091141855
 20
12.71059282851718
 30
0.0
 11
40.9380108192045
 21
12.71059282851718
 31
0.0
  0
SOLID
  5
1FFA
330
1F2D
100
AcDbEntity
  8
0
100
AcDbTrace
 10
44.34723366110111
 20
12.71059282851718
 30
0.0
 11
46.37723366110108
 21
10.03494631525621
 31
0.0
 12
44.34723366110111
 22
10.59029825623466
 32
0.0
 13
46.37723366110108
 23
8.360592828517184
 33
0.0
  0
SOLID
  5
1FFB
330
1F2D
100
AcDbEntity
  8
0
100
AcDbTrace
 10
43.18723366110105
 20
12.71059282851718
 30
0.0
 11
44.34723366110111
 21
12.71059282851718
 31
0.0
 12
43.18723366110105
 22
8.360592828517184
 32
0.0
 13
44.34723366110111
 23
8.360592828517184
 33
0.0
  0
LINE
  5
1FFC
330
1F2D
100
AcDbEntity
  8
0
100
AcDbLine
 10
43.18723366110105
 20
12.71059282851718
 30
0.0
 11
43.18723366110105
 21
8.360592828517184
 31
0.0
  0
LINE
  5
1FFD
330
1F2D
100
AcDbEntity
  8
0
100
AcDbLine
 10
44.34723366110111
 20
12.71059282851718
 30
0.0
 11
46.37723366110108
 21
10.03494631525621
 31
0.0
  0
LINE
  5
1FFE
330
1F2D
100
AcDbEntity
  8
0
100
AcDbLine
 10
46.37723366110108
 20
12.71059282851718
 30
0.0
 11
46.37723366110108
 21
10.03494631525621
 31
0.0
  0
LINE
  5
1FFF
330
1F2D
100
AcDbEntity
  8
0
100
AcDbLine
 10
44.34723366110111
 20
10.59029825623466
 30
0.0
 11
46.37723366110108
 21
8.360592828517184
 31
0.0
  0
LINE
  5
2000
330
1F2D
100
AcDbEntity
  8
0
100
AcDbLine
 10
44.34723366110111
 20
10.59029825623463
 30
0.0
 11
44.34723366110111
 21
8.360592828517184
 31
0.0
  0
LINE
  5
2001
330
1F2D
100
AcDbEntity
  8
0
100
AcDbLine
 10
43.18723366110105
 20
8.360592828517184
 30
0.0
 11
44.34723366110111
 21
8.360592828517184
 31
0.0
  0
LINE
  5
2002
330
1F2D
100
AcDbEntity
  8
0
100
AcDbLine
 10
44.347233661101
 20
12.71059282851718
 30
0.0
 11
43.18723366110105
 21
12.71059282851718
 31
0.0
  0
SOLID
  5
2003
330
1F2D
100
AcDbEntity
  8
0
100
AcDbTrace
 10
49.61919809786346
 20
12.71059282851718
 30
0.0
 11
51.64919809786344
 21
10.03494631525621
 31
0.0
 12
49.61919809786346
 22
10.59029825623466
 32
0.0
 13
51.64919809786344
 23
8.360592828517184
 33
0.0
  0
LINE
  5
2004
330
1F2D
100
AcDbEntity
  8
0
100
AcDbLine
 10
49.61919809786346
 20
10.59029825623466
 30
0.0
 11
51.64919809786344
 21
8.360592828517184
 31
0.0
  0
LINE
  5
2005
330
1F2D
100
AcDbEntity
  8
0
100
AcDbLine
 10
49.61919809786346
 20
12.71059282851718
 30
0.0
 11
51.64919809786344
 21
10.03494631525621
 31
0.0
  0
SOLID
  5
2006
330
1F2D
100
AcDbEntity
  8
0
100
AcDbTrace
 10
49.61919809786346
 20
8.360592828517184
 30
0.0
 11
48.45919809786337
 21
8.360592828517184
 31
0.0
 12
49.61919809786346
 22
12.71059282851718
 32
0.0
 13
48.45919809786337
 23
12.71059282851718
 33
0.0
  0
LINE
  5
2007
330
1F2D
100
AcDbEntity
  8
0
100
AcDbLine
 10
48.45919809786337
 20
12.71059282851718
 30
0.0
 11
48.45919809786337
 21
8.360592828517184
 31
0.0
  0
LINE
  5
2008
330
1F2D
100
AcDbEntity
  8
0
100
AcDbLine
 10
47.53723366110105
 20
12.71059282851718
 30
0.0
 11
47.53723366110105
 21
8.360592828517184
 31
0.0
  0
LINE
  5
2009
330
1F2D
100
AcDbEntity
  8
0
100
AcDbLine
 10
48.45919809786337
 20
8.360592828517184
 30
0.0
 11
49.61919809786346
 21
8.360592828517184
 31
0.0
  0
LINE
  5
200A
330
1F2D
100
AcDbEntity
  8
0
100
AcDbLine
 10
49.61919809786346
 20
10.59029825623463
 30
0.0
 11
49.61919809786346
 21
8.360592828517184
 31
0.0
  0
LINE
  5
200B
330
1F2D
100
AcDbEntity
  8
0
100
AcDbLine
 10
49.61919809786346
 20
12.71059282851718
 30
0.0
 11
48.45919809786337
 21
12.71059282851718
 31
0.0
  0
SOLID
  5
200C
330
1F2D
100
AcDbEntity
  8
0
100
AcDbTrace
 10
51.64919809786344
 20
12.71059282851718
 30
0.0
 11
52.8091980978634
 21
12.71059282851718
 31
0.0
 12
51.64919809786344
 22
8.360592828517184
 32
0.0
 13
52.8091980978634
 23
8.360592828517184
 33
0.0
  0
LINE
  5
200D
330
1F2D
100
AcDbEntity
  8
0
100
AcDbLine
 10
51.64919809786344
 20
12.71059282851718
 30
0.0
 11
51.64919809786344
 21
10.03494631525621
 31
0.0
  0
LINE
  5
200E
330
1F2D
100
AcDbEntity
  8
0
100
AcDbLine
 10
52.8091980978634
 20
12.71059282851718
 30
0.0
 11
52.8091980978634
 21
8.360592828517184
 31
0.0
  0
LINE
  5
200F
330
1F2D
100
AcDbEntity
  8
0
100
AcDbLine
 10
51.64919809786344
 20
8.360592828517184
 30
0.0
 11
52.8091980978634
 21
8.360592828517184
 31
0.0
  0
LINE
  5
2010
330
1F2D
100
AcDbEntity
  8
0
100
AcDbLine
 10
52.8091980978634
 20
12.71059282851718
 30
0.0
 11
51.64919809786344
 21
12.71059282851718
 31
0.0
  0
ENDBLK
  5
2012
330
1F2D
100
AcDbEntity
  8
0
 48
10.0
100
AcDbBlockEnd
  0
BLOCK
  5
2279
330
2277
100
AcDbEntity
  8
0
 48
10.0
100
AcDbBlockBegin
  2
GENAXEH
 70
     0
 10
0.0
 20
0.0
 30
0.0
  3
GENAXEH
  1

  0
LINE
  5
2278
330
2277
100
AcDbEntity
  8
0
100
AcDbLine
 10
-1.0
 20
0.0
 30
0.0
 11
1.0
 21
0.0
 31
0.0
  0
ENDBLK
  5
227A
330
2277
100
AcDbEntity
  8
0
 48
10.0
100
AcDbBlockEnd
  0
BLOCK
  5
2F11
330
2F07
100
AcDbEntity
  8
0
 48
10.0
100
AcDbBlockBegin
  2
*D4
 70
     1
 10
0.0
 20
0.0
 30
0.0
  3
*D4
  1

  0
LINE
  5
2F73
330
2F07
100
AcDbEntity
  8
LINIE
 48
10.0
370
    -2
100
AcDbLine
 10
470.2572087729611
 20
316.9498218231133
 30
0.0
 11
470.2572087729611
 21
412.6229156346454
 31
0.0
  0
LINE
  5
2F74
330
2F07
100
AcDbEntity
  8
LINIE
 48
10.0
370
    -2
100
AcDbLine
 10
56.94183905000648
 20
295.9498218231133
 30
0.0
 11
56.94183905000649
 21
412.6229156346454
 31
0.0
  0
LINE
  5
2F75
330
2F07
100
AcDbEntity
  8
LINIE
 48
10.0
370
    -2
100
AcDbLine
 10
464.257208772961
 20
411.3729156346454
 30
0.0
 11
62.94183905000648
 21
411.3729156346454
 31
0.0
  0
SOLID
  5
2F76
330
2F07
100
AcDbEntity
  8
LINIE
 48
10.0
100
AcDbTrace
 10
464.257208772961
 20
412.3729156346454
 30
0.0
 11
464.257208772961
 21
410.3729156346454
 31
0.0
 12
470.2572087729611
 22
411.3729156346454
 32
0.0
 13
470.2572087729611
 23
411.3729156346454
 33
0.0
  0
SOLID
  5
2F77
330
2F07
100
AcDbEntity
  8
LINIE
 48
10.0
100
AcDbTrace
 10
62.94183905000648
 20
412.3729156346454
 30
0.0
 11
62.94183905000648
 21
410.3729156346454
 31
0.0
 12
56.94183905000649
 22
411.3729156346454
 32
0.0
 13
56.94183905000649
 23
411.3729156346454
 33
0.0
  0
MTEXT
  5
2F78
330
2F07
100
AcDbEntity
  8
LINIE
 48
10.0
100
AcDbMText
 10
250.3921788643627
 20
417.8729156346454
 30
0.0
 40
7.0
 41
0.0
 46
0.0
 71
     5
 72
     1
  1
\A1;207
 73
     1
 44
1.0
  0
POINT
  5
2F79
330
2F07
100
AcDbEntity
  8
Defpoints
 62
     0
 48
10.0
100
AcDbPoint
 10
470.2572087729611
 20
316.9498218231133
 30
0.0
  0
POINT
  5
2F7A
330
2F07
100
AcDbEntity
  8
Defpoints
 62
     0
 48
10.0
100
AcDbPoint
 10
56.94183905000648
 20
295.9498218231133
 30
0.0
  0
POINT
  5
2F7B
330
2F07
100
AcDbEntity
  8
Defpoints
 62
     0
 48
10.0
100
AcDbPoint
 10
56.94183905000649
 20
411.3729156346454
 30
0.0
  0
ENDBLK
  5
2F12
330
2F07
100
AcDbEntity
  8
0
 48
10.0
100
AcDbBlockEnd
  0
BLOCK
  5
2F1D
330
2F13
100
AcDbEntity
  8
0
 48
10.0
100
AcDbBlockBegin
  2
*D5
 70
     1
 10
0.0
 20
0.0
 30
0.0
  3
*D5
  1

  0
LINE
  5
2F7C
330
2F13
100
AcDbEntity
  8
LINIE
 48
10.0
370
    -2
100
AcDbLine
 10
58.94183905000648
 20
297.9498218231133
 30
0.0
 11
16.6366894424571
 21
297.9498218231133
 31
0.0
  0
LINE
  5
2F7D
330
2F13
100
AcDbEntity
  8
LINIE
 48
10.0
370
    -2
100
AcDbLine
 10
58.94183905000648
 20
251.9498218231133
 30
0.0
 11
16.63668944245709
 21
251.9498218231133
 31
0.0
  0
LINE
  5
2F7E
330
2F13
100
AcDbEntity
  8
LINIE
 48
10.0
370
    -2
100
AcDbLine
 10
17.8866894424571
 20
291.9498218231133
 30
0.0
 11
17.88668944245709
 21
257.9498218231133
 31
0.0
  0
SOLID
  5
2F7F
330
2F13
100
AcDbEntity
  8
LINIE
 48
10.0
100
AcDbTrace
 10
16.8866894424571
 20
291.9498218231133
 30
0.0
 11
18.8866894424571
 21
291.9498218231133
 31
0.0
 12
17.8866894424571
 22
297.9498218231133
 32
0.0
 13
17.8866894424571
 23
297.9498218231133
 33
0.0
  0
SOLID
  5
2F80
330
2F13
100
AcDbEntity
  8
LINIE
 48
10.0
100
AcDbTrace
 10
16.88668944245709
 20
257.9498218231133
 30
0.0
 11
18.88668944245709
 21
257.9498218231133
 31
0.0
 12
17.88668944245709
 22
251.9498218231133
 32
0.0
 13
17.88668944245709
 23
251.9498218231133
 33
0.0
  0
MTEXT
  5
2F81
330
2F13
100
AcDbEntity
  8
LINIE
 48
10.0
100
AcDbMText
 10
11.38668944245705
 20
272.749439355962
 30
0.0
 40
7.0
 41
0.0
 46
0.0
 71
     5
 72
     1
  1
\A1;%%c23
 11
0.0000000000000001
 21
1.0
 31
0.0
 73
     1
 44
1.0
  0
POINT
  5
2F82
330
2F13
100
AcDbEntity
  8
Defpoints
 62
     0
 48
10.0
100
AcDbPoint
 10
58.94183905000648
 20
297.9498218231133
 30
0.0
  0
POINT
  5
2F83
330
2F13
100
AcDbEntity
  8
Defpoints
 62
     0
 48
10.0
100
AcDbPoint
 10
58.94183905000648
 20
251.9498218231133
 30
0.0
  0
POINT
  5
2F84
330
2F13
100
AcDbEntity
  8
Defpoints
 62
     0
 48
10.0
100
AcDbPoint
 10
17.88668944245709
 20
251.9498218231133
 30
0.0
  0
ENDBLK
  5
2F1E
330
2F13
100
AcDbEntity
  8
0
 48
10.0
100
AcDbBlockEnd
  0
BLOCK
  5
2F29
330
2F1F
100
AcDbEntity
  8
0
 48
10.0
100
AcDbBlockBegin
  2
*D6
 70
     1
 10
0.0
 20
0.0
 30
0.0
  3
*D6
  1

  0
LINE
  5
2F85
330
2F1F
100
AcDbEntity
  8
LINIE
 48
10.0
370
    -2
100
AcDbLine
 10
177.5971236663638
 20
316.4498218231133
 30
0.0
 11
174.058279338127
 21
316.4498218231133
 31
0.0
  0
LINE
  5
2F86
330
2F1F
100
AcDbEntity
  8
LINIE
 48
10.0
370
    -2
100
AcDbLine
 10
178.6143866290297
 20
233.4498218231134
 30
0.0
 11
174.058279338127
 21
233.4498218231134
 31
0.0
  0
LINE
  5
2F87
330
2F1F
100
AcDbEntity
  8
LINIE
 48
10.0
370
    -2
100
AcDbLine
 10
175.308279338127
 20
310.4498218231133
 30
0.0
 11
175.308279338127
 21
239.4498218231134
 31
0.0
  0
SOLID
  5
2F88
330
2F1F
100
AcDbEntity
  8
LINIE
 48
10.0
100
AcDbTrace
 10
174.308279338127
 20
310.4498218231133
 30
0.0
 11
176.308279338127
 21
310.4498218231133
 31
0.0
 12
175.308279338127
 22
316.4498218231133
 32
0.0
 13
175.308279338127
 23
316.4498218231133
 33
0.0
  0
SOLID
  5
2F89
330
2F1F
100
AcDbEntity
  8
LINIE
 48
10.0
100
AcDbTrace
 10
174.308279338127
 20
239.4498218231134
 30
0.0
 11
176.308279338127
 21
239.4498218231134
 31
0.0
 12
175.308279338127
 22
233.4498218231134
 32
0.0
 13
175.308279338127
 23
233.4498218231134
 33
0.0
  0
MTEXT
  5
2F8A
330
2F1F
100
AcDbEntity
  8
LINIE
 48
10.0
100
AcDbMText
 10
168.808279338127
 20
274.9498218231134
 30
0.0
 40
7.0
 41
0.0
 46
0.0
 71
     5
 72
     1
  1
\A1;%%c41.5
 11
0.0000000000000001
 21
1.0
 31
0.0
 73
     1
 44
1.0
  0
POINT
  5
2F8B
330
2F1F
100
AcDbEntity
  8
Defpoints
 62
     0
 48
10.0
100
AcDbPoint
 10
177.5971236663638
 20
316.4498218231133
 30
0.0
  0
POINT
  5
2F8C
330
2F1F
100
AcDbEntity
  8
Defpoints
 62
     0
 48
10.0
100
AcDbPoint
 10
178.6143866290297
 20
233.4498218231134
 30
0.0
  0
POINT
  5
2F8D
330
2F1F
100
AcDbEntity
  8
Defpoints
 62
     0
 48
10.0
100
AcDbPoint
 10
175.308279338127
 20
233.4498218231134
 30
0.0
  0
ENDBLK
  5
2F2A
330
2F1F
100
AcDbEntity
  8
0
 48
10.0
100
AcDbBlockEnd
  0
BLOCK
  5
2F35
330
2F2B
100
AcDbEntity
  8
0
 48
10.0
100
AcDbBlockBegin
  2
*D7
 70
     1
 10
0.0
 20
0.0
 30
0.0
  3
*D7
  1

  0
LINE
  5
2F8E
330
2F2B
100
AcDbEntity
  8
LINIE
 48
10.0
370
    -2
100
AcDbLine
 10
128.8572087723905
 20
298.9498218231133
 30
0.0
 11
128.8572087723905
 21
356.8644528916884
 31
0.0
  0
LINE
  5
2F8F
330
2F2B
100
AcDbEntity
  8
LINIE
 48
10.0
370
    -2
100
AcDbLine
 10
56.94183905000648
 20
295.9498218231133
 30
0.0
 11
56.94183905000649
 21
356.8644528916884
 31
0.0
  0
LINE
  5
2F90
330
2F2B
100
AcDbEntity
  8
LINIE
 48
10.0
370
    -2
100
AcDbLine
 10
122.8572087723905
 20
355.6144528916884
 30
0.0
 11
62.94183905000648
 21
355.6144528916884
 31
0.0
  0
SOLID
  5
2F91
330
2F2B
100
AcDbEntity
  8
LINIE
 48
10.0
100
AcDbTrace
 10
122.8572087723905
 20
356.6144528916884
 30
0.0
 11
122.8572087723905
 21
354.6144528916884
 31
0.0
 12
128.8572087723905
 22
355.6144528916884
 32
0.0
 13
128.8572087723905
 23
355.6144528916884
 33
0.0
  0
SOLID
  5
2F92
330
2F2B
100
AcDbEntity
  8
LINIE
 48
10.0
100
AcDbTrace
 10
62.94183905000648
 20
356.6144528916884
 30
0.0
 11
62.94183905000648
 21
354.6144528916884
 31
0.0
 12
56.94183905000649
 22
355.6144528916884
 32
0.0
 13
56.94183905000649
 23
355.6144528916884
 33
0.0
  0
MTEXT
  5
2F93
330
2F2B
100
AcDbEntity
  8
LINIE
 48
10.0
100
AcDbMText
 10
92.89952391119852
 20
362.1144528916884
 30
0.0
 40
7.0
 41
0.0
 46
0.0
 71
     5
 72
     1
  1
\A1;36
 73
     1
 44
1.0
  0
POINT
  5
2F94
330
2F2B
100
AcDbEntity
  8
Defpoints
 62
     0
 48
10.0
100
AcDbPoint
 10
128.8572087723905
 20
298.9498218231133
 30
0.0
  0
POINT
  5
2F95
330
2F2B
100
AcDbEntity
  8
Defpoints
 62
     0
 48
10.0
100
AcDbPoint
 10
56.94183905000648
 20
295.9498218231133
 30
0.0
  0
POINT
  5
2F96
330
2F2B
100
AcDbEntity
  8
Defpoints
 62
     0
 48
10.0
100
AcDbPoint
 10
56.94183905000649
 20
355.6144528916884
 30
0.0
  0
ENDBLK
  5
2F36
330
2F2B
100
AcDbEntity
  8
0
 48
10.0
100
AcDbBlockEnd
  0
BLOCK
  5
2F41
330
2F37
100
AcDbEntity
  8
0
 48
10.0
100
AcDbBlockBegin
  2
*D8
 70
     1
 10
0.0
 20
0.0
 30
0.0
  3
*D8
  1

  0
LINE
  5
2F97
330
2F37
100
AcDbEntity
  8
LINIE
 48
10.0
370
    -2
100
AcDbLine
 10
154.8572087723907
 20
314.4498218231133
 30
0.0
 11
154.8572087723907
 21
388.0669273521383
 31
0.0
  0
LINE
  5
2F98
330
2F37
100
AcDbEntity
  8
LINIE
 48
10.0
370
    -2
100
AcDbLine
 10
56.94183905000648
 20
295.9498218231133
 30
0.0
 11
56.94183905000649
 21
388.0669273521383
 31
0.0
  0
LINE
  5
2F99
330
2F37
100
AcDbEntity
  8
LINIE
 48
10.0
370
    -2
100
AcDbLine
 10
148.8572087723907
 20
386.8169273521384
 30
0.0
 11
62.94183905000648
 21
386.8169273521384
 31
0.0
  0
SOLID
  5
2F9A
330
2F37
100
AcDbEntity
  8
LINIE
 48
10.0
100
AcDbTrace
 10
148.8572087723907
 20
387.8169273521383
 30
0.0
 11
148.8572087723907
 21
385.8169273521383
 31
0.0
 12
154.8572087723907
 22
386.8169273521384
 32
0.0
 13
154.8572087723907
 23
386.8169273521384
 33
0.0
  0
SOLID
  5
2F9B
330
2F37
100
AcDbEntity
  8
LINIE
 48
10.0
100
AcDbTrace
 10
62.94183905000648
 20
387.8169273521383
 30
0.0
 11
62.94183905000648
 21
385.8169273521383
 31
0.0
 12
56.94183905000649
 22
386.8169273521384
 32
0.0
 13
56.94183905000649
 23
386.8169273521384
 33
0.0
  0
MTEXT
  5
2F9C
330
2F37
100
AcDbEntity
  8
LINIE
 48
10.0
100
AcDbMText
 10
105.8995239111986
 20
393.3169273521384
 30
0.0
 40
7.0
 41
0.0
 46
0.0
 71
     5
 72
     1
  1
\A1;49
 73
     1
 44
1.0
  0
POINT
  5
2F9D
330
2F37
100
AcDbEntity
  8
Defpoints
 62
     0
 48
10.0
100
AcDbPoint
 10
154.8572087723907
 20
314.4498218231133
 30
0.0
  0
POINT
  5
2F9E
330
2F37
100
AcDbEntity
  8
Defpoints
 62
     0
 48
10.0
100
AcDbPoint
 10
56.94183905000648
 20
295.9498218231133
 30
0.0
  0
POINT
  5
2F9F
330
2F37
100
AcDbEntity
  8
Defpoints
 62
     0
 48
10.0
100
AcDbPoint
 10
56.94183905000649
 20
386.8169273521384
 30
0.0
  0
ENDBLK
  5
2F42
330
2F37
100
AcDbEntity
  8
0
 48
10.0
100
AcDbBlockEnd
  0
BLOCK
  5
2F4D
330
2F43
100
AcDbEntity
  8
0
 48
10.0
100
AcDbBlockBegin
  2
*D9
 70
     1
 10
0.0
 20
0.0
 30
0.0
  3
*D9
  1

  0
LINE
  5
2FA0
330
2F43
100
AcDbEntity
  8
LINIE
 48
10.0
370
    -2
100
AcDbLine
 10
320.9115262880907
 20
316.4498218231133
 30
0.0
 11
317.0966993178193
 21
316.4498218231133
 31
0.0
  0
LINE
  5
2FA1
330
2F43
100
AcDbEntity
  8
LINIE
 48
10.0
370
    -2
100
AcDbLine
 10
323.1557472248389
 20
233.4498218231133
 30
0.0
 11
317.0966993178193
 21
233.4498218231134
 31
0.0
  0
LINE
  5
2FA2
330
2F43
100
AcDbEntity
  8
LINIE
 48
10.0
370
    -2
100
AcDbLine
 10
318.3466993178193
 20
310.4498218231133
 30
0.0
 11
318.3466993178193
 21
239.4498218231134
 31
0.0
  0
SOLID
  5
2FA3
330
2F43
100
AcDbEntity
  8
LINIE
 48
10.0
100
AcDbTrace
 10
317.3466993178193
 20
310.4498218231133
 30
0.0
 11
319.3466993178193
 21
310.4498218231133
 31
0.0
 12
318.3466993178193
 22
316.4498218231133
 32
0.0
 13
318.3466993178193
 23
316.4498218231133
 33
0.0
  0
SOLID
  5
2FA4
330
2F43
100
AcDbEntity
  8
LINIE
 48
10.0
100
AcDbTrace
 10
317.3466993178193
 20
239.4498218231134
 30
0.0
 11
319.3466993178193
 21
239.4498218231134
 31
0.0
 12
318.3466993178193
 22
233.4498218231134
 32
0.0
 13
318.3466993178193
 23
233.4498218231134
 33
0.0
  0
MTEXT
  5
2FA5
330
2F43
100
AcDbEntity
  8
LINIE
 48
10.0
100
AcDbMText
 10
311.8466993178192
 20
274.9498218231134
 30
0.0
 40
7.0
 41
0.0
 46
0.0
 71
     5
 72
     1
  1
\A1;%%c41.5
 11
0.0000000000000001
 21
1.0
 31
0.0
 73
     1
 44
1.0
  0
POINT
  5
2FA6
330
2F43
100
AcDbEntity
  8
Defpoints
 62
     0
 48
10.0
100
AcDbPoint
 10
320.9115262880907
 20
316.4498218231133
 30
0.0
  0
POINT
  5
2FA7
330
2F43
100
AcDbEntity
  8
Defpoints
 62
     0
 48
10.0
100
AcDbPoint
 10
323.1557472248389
 20
233.4498218231133
 30
0.0
  0
POINT
  5
2FA8
330
2F43
100
AcDbEntity
  8
Defpoints
 62
     0
 48
10.0
100
AcDbPoint
 10
318.3466993178193
 20
233.4498218231134
 30
0.0
  0
ENDBLK
  5
2F4E
330
2F43
100
AcDbEntity
  8
0
 48
10.0
100
AcDbBlockEnd
  0
BLOCK
  5
2F59
330
2F4F
100
AcDbEntity
  8
0
 48
10.0
100
AcDbBlockBegin
  2
*D10
 70
     1
 10
0.0
 20
0.0
 30
0.0
  3
*D10
  1

  0
LINE
  5
2FA9
330
2F4F
100
AcDbEntity
  8
LINIE
 48
10.0
370
    -2
100
AcDbLine
 10
154.8572087723907
 20
314.4498218231133
 30
0.0
 11
154.8572087723907
 21
388.0656525403359
 31
0.0
  0
LINE
  5
2FAA
330
2F4F
100
AcDbEntity
  8
LINIE
 48
10.0
370
    -2
100
AcDbLine
 10
390.2572087723904
 20
316.9498218231134
 30
0.0
 11
390.2572087723904
 21
388.0656525403359
 31
0.0
  0
LINE
  5
2FAB
330
2F4F
100
AcDbEntity
  8
LINIE
 48
10.0
370
    -2
100
AcDbLine
 10
160.8572087723907
 20
386.8156525403359
 30
0.0
 11
384.2572087723904
 21
386.8156525403359
 31
0.0
  0
SOLID
  5
2FAC
330
2F4F
100
AcDbEntity
  8
LINIE
 48
10.0
100
AcDbTrace
 10
160.8572087723907
 20
387.8156525403359
 30
0.0
 11
160.8572087723907
 21
385.8156525403359
 31
0.0
 12
154.8572087723907
 22
386.8156525403359
 32
0.0
 13
154.8572087723907
 23
386.8156525403359
 33
0.0
  0
SOLID
  5
2FAD
330
2F4F
100
AcDbEntity
  8
LINIE
 48
10.0
100
AcDbTrace
 10
384.2572087723904
 20
387.8156525403359
 30
0.0
 11
384.2572087723904
 21
385.8156525403359
 31
0.0
 12
390.2572087723904
 22
386.8156525403359
 32
0.0
 13
390.2572087723904
 23
386.8156525403359
 33
0.0
  0
MTEXT
  5
2FAE
330
2F4F
100
AcDbEntity
  8
LINIE
 48
10.0
100
AcDbMText
 10
271.2180191800692
 20
393.3156525403359
 30
0.0
 40
7.0
 41
0.0
 46
0.0
 71
     5
 72
     1
  1
\A1;118
 73
     1
 44
1.0
  0
POINT
  5
2FAF
330
2F4F
100
AcDbEntity
  8
Defpoints
 62
     0
 48
10.0
100
AcDbPoint
 10
154.8572087723907
 20
314.4498218231133
 30
0.0
  0
POINT
  5
2FB0
330
2F4F
100
AcDbEntity
  8
Defpoints
 62
     0
 48
10.0
100
AcDbPoint
 10
390.2572087723904
 20
316.9498218231134
 30
0.0
  0
POINT
  5
2FB1
330
2F4F
100
AcDbEntity
  8
Defpoints
 62
     0
 48
10.0
100
AcDbPoint
 10
390.2572087723904
 20
386.8156525403359
 30
0.0
  0
ENDBLK
  5
2F5A
330
2F4F
100
AcDbEntity
  8
0
 48
10.0
100
AcDbBlockEnd
  0
BLOCK
  5
2F65
330
2F5B
100
AcDbEntity
  8
0
 48
10.0
100
AcDbBlockBegin
  2
*D11
 70
     1
 10
0.0
 20
0.0
 30
0.0
  3
*D11
  1

  0
LINE
  5
2FCF
330
2F5B
100
AcDbEntity
  8
LINIE
 48
10.0
370
    -2
100
AcDbLine
 10
470.2572087729611
 20
316.9498218231133
 30
0.0
 11
581.092611916985
 21
316.9498218231133
 31
0.0
  0
LINE
  5
2FD0
330
2F5B
100
AcDbEntity
  8
LINIE
 48
10.0
370
    -2
100
AcDbLine
 10
470.2572087729611
 20
232.9498218231133
 30
0.0
 11
496.5951503277683
 21
232.9498218231133
 31
0.0
  0
LINE
  5
2FD1
330
2F5B
100
AcDbEntity
  8
LINIE
 48
10.0
370
    -2
100
AcDbLine
 10
579.842611916985
 20
310.9498218231133
 30
0.0
 11
579.8426119169849
 21
238.9498218231133
 31
0.0
  0
SOLID
  5
2FD2
330
2F5B
100
AcDbEntity
  8
LINIE
 48
10.0
100
AcDbTrace
 10
578.842611916985
 20
310.9498218231133
 30
0.0
 11
580.8426119169849
 21
310.9498218231133
 31
0.0
 12
579.842611916985
 22
316.9498218231133
 32
0.0
 13
579.842611916985
 23
316.9498218231133
 33
0.0
  0
SOLID
  5
2FD3
330
2F5B
100
AcDbEntity
  8
LINIE
 48
10.0
100
AcDbTrace
 10
578.8426119169848
 20
238.9498218231133
 30
0.0
 11
580.8426119169848
 21
238.9498218231133
 31
0.0
 12
579.8426119169849
 22
232.9498218231133
 32
0.0
 13
579.8426119169849
 23
232.9498218231133
 33
0.0
  0
MTEXT
  5
2FD4
330
2F5B
100
AcDbEntity
  8
LINIE
 48
10.0
100
AcDbMText
 10
573.3426119169848
 20
277.5190131764555
 30
0.0
 40
7.0
 41
0.0
 46
0.0
 71
     5
 72
     1
  1
\A1;%%c42
 11
0.0000000000000001
 21
1.0
 31
0.0
 73
     1
 44
1.0
  0
POINT
  5
2FD5
330
2F5B
100
AcDbEntity
  8
Defpoints
 62
     0
 48
10.0
100
AcDbPoint
 10
470.2572087729611
 20
316.9498218231133
 30
0.0
  0
POINT
  5
2FD6
330
2F5B
100
AcDbEntity
  8
Defpoints
 62
     0
 48
10.0
100
AcDbPoint
 10
470.2572087729611
 20
232.9498218231133
 30
0.0
  0
POINT
  5
2FD7
330
2F5B
100
AcDbEntity
  8
Defpoints
 62
     0
 48
10.0
100
AcDbPoint
 10
579.8426119169849
 20
232.9498218231133
 30
0.0
  0
LINE
  5
2FD8
330
2F5B
100
AcDbEntity
  8
LINIE
 48
10.0
370
    -2
100
AcDbLine
 10
570.5759997877025
 20
232.9498218231133
 30
0.0
 11
581.0926119169848
 21
232.9498218231133
 31
0.0
  0
ENDBLK
  5
2F66
330
2F5B
100
AcDbEntity
  8
0
 48
10.0
100
AcDbBlockEnd
  0
BLOCK
  5
2F71
330
2F67
100
AcDbEntity
  8
0
 48
10.0
100
AcDbBlockBegin
  2
*D12
 70
     1
 10
0.0
 20
0.0
 30
0.0
  3
*D12
  1

  0
LINE
  5
2FBB
330
2F67
100
AcDbEntity
  8
LINIE
 48
10.0
370
    -2
100
AcDbLine
 10
390.2572087723904
 20
316.9498218231133
 30
0.0
 11
390.2572087723904
 21
356.8644528916884
 31
0.0
  0
LINE
  5
2FBC
330
2F67
100
AcDbEntity
  8
LINIE
 48
10.0
370
    -2
100
AcDbLine
 10
193.8572087723906
 20
316.4498218231134
 30
0.0
 11
193.8572087723906
 21
356.8644528916884
 31
0.0
  0
LINE
  5
2FBD
330
2F67
100
AcDbEntity
  8
LINIE
 48
10.0
370
    -2
100
AcDbLine
 10
384.2572087723904
 20
355.6144528916884
 30
0.0
 11
199.8572087723906
 21
355.6144528916884
 31
0.0
  0
SOLID
  5
2FBE
330
2F67
100
AcDbEntity
  8
LINIE
 48
10.0
100
AcDbTrace
 10
384.2572087723904
 20
356.6144528916884
 30
0.0
 11
384.2572087723904
 21
354.6144528916884
 31
0.0
 12
390.2572087723904
 22
355.6144528916884
 32
0.0
 13
390.2572087723904
 23
355.6144528916884
 33
0.0
  0
SOLID
  5
2FBF
330
2F67
100
AcDbEntity
  8
LINIE
 48
10.0
100
AcDbTrace
 10
199.8572087723906
 20
356.6144528916884
 30
0.0
 11
199.8572087723906
 21
354.6144528916884
 31
0.0
 12
193.8572087723906
 22
355.6144528916884
 32
0.0
 13
193.8572087723906
 23
355.6144528916884
 33
0.0
  0
MTEXT
  5
2FC0
330
2F67
100
AcDbEntity
  8
LINIE
 48
10.0
100
AcDbMText
 10
292.0572087723905
 20
362.1144528916884
 30
0.0
 40
7.0
 41
0.0
 46
0.0
 71
     5
 72
     1
  1
\A1;98
 73
     1
 44
1.0
  0
POINT
  5
2FC1
330
2F67
100
AcDbEntity
  8
Defpoints
 62
     0
 48
10.0
100
AcDbPoint
 10
390.2572087723904
 20
316.9498218231133
 30
0.0
  0
POINT
  5
2FC2
330
2F67
100
AcDbEntity
  8
Defpoints
 62
     0
 48
10.0
100
AcDbPoint
 10
193.8572087723906
 20
316.4498218231134
 30
0.0
  0
POINT
  5
2FC3
330
2F67
100
AcDbEntity
  8
Defpoints
 62
     0
 48
10.0
100
AcDbPoint
 10
193.8572087723906
 20
355.6144528916884
 30
0.0
  0
ENDBLK
  5
2F72
330
2F67
100
AcDbEntity
  8
0
 48
10.0
100
AcDbBlockEnd
  0
ENDSEC
  0
SECTION
  2
ENTITIES
  0
TEXT
  5
1474
330
2
100
AcDbEntity
  8
TEXT
100
AcDbText
 10
522.5921867209947
 20
61.08465571486515
 30
0.0
 40
3.5
  1

100
AcDbText
  0
TEXT
  5
1925
330
2
100
AcDbEntity
  8
LINIE
100
AcDbText
 10
524.2278426977816
 20
20.89935293715595
 30
0.0
 40
2.5
  1

100
AcDbText
  0
LINE
  5
2E94
330
2
100
AcDbEntity
  8
0
 48
10.0
100
AcDbLine
 10
390.2572087723903
 20
316.4498218231134
 30
0.0
 11
390.2572087723903
 21
311.6498218231133
 31
0.0
1001
ACAD
1000
ASC_BOUNDS
1002
{
1070
    19
1002
}
  0
LINE
  5
2E95
330
2
100
AcDbEntity
  8
0
 48
10.0
100
AcDbLine
 10
262.2572087723904
 20
316.4498218231133
 30
0.0
 11
390.2572087723904
 21
316.4498218231133
 31
0.0
  0
LINE
  5
2E96
330
2
100
AcDbEntity
  8
0
 48
10.0
100
AcDbLine
 10
262.2572087723904
 20
233.4498218231133
 30
0.0
 11
390.2572087723904
 21
233.4498218231133
 31
0.0
  0
LINE
  5
2E97
330
2
100
AcDbEntity
  8
0
 48
10.0
100
AcDbLine
 10
390.2572087723904
 20
316.9498218231134
 30
0.0
 11
390.2572087723903
 21
232.9498218231133
 31
0.0
  0
LINE
  5
2E99
330
2
100
AcDbEntity
  8
0
 48
10.0
100
AcDbLine
 10
193.8572087723906
 20
233.4498218231133
 30
0.0
 11
262.2572087723903
 21
233.4498218231133
 31
0.0
  0
LINE
  5
2E9A
330
2
100
AcDbEntity
  8
0
 48
10.0
100
AcDbLine
 10
193.8572087723906
 20
316.4498218231134
 30
0.0
 11
262.2572087723903
 21
316.4498218231132
 31
0.0
  0
LINE
  5
2E9B
330
2
100
AcDbEntity
  8
0
 48
10.0
100
AcDbLine
 10
193.8572087723906
 20
316.4498218231133
 30
0.0
 11
193.8572087723906
 21
309.1098218231134
 31
0.0
  0
LINE
  5
2E9C
330
2
100
AcDbEntity
  8
0
 48
10.0
100
AcDbLine
 10
262.2572087723904
 20
316.4498218231133
 30
0.0
 11
262.2572087723904
 21
233.4498218231133
 31
0.0
  0
LINE
  5
2E9E
330
2
100
AcDbEntity
  8
0
 48
10.0
100
AcDbLine
 10
193.8572087723908
 20
316.4498218231133
 30
0.0
 11
193.8572087723908
 21
233.4498218231134
 31
0.0
  0
LINE
  5
2E9F
330
2
100
AcDbEntity
  8
0
 48
10.0
100
AcDbLine
 10
156.8572087723906
 20
316.4498218231133
 30
0.0
 11
193.8572087723908
 21
316.4498218231133
 31
0.0
  0
LINE
  5
2EA0
330
2
100
AcDbEntity
  8
0
 48
10.0
100
AcDbLine
 10
92.94183905000625
 20
293.9498218231133
 30
0.0
 11
128.8572087723905
 21
293.9498218231133
 31
0.0
  0
LINE
  5
2EA1
330
2
100
AcDbEntity
  8
0
 48
10.0
100
AcDbLine
 10
148.8572087723907
 20
312.9498218231133
 30
0.0
 11
154.8572087723908
 21
312.9498218231133
 31
0.0
  0
LINE
  5
2EA2
330
2
100
AcDbEntity
  8
0
 48
10.0
100
AcDbLine
 10
156.8572087723907
 20
316.4498218231133
 30
0.0
 11
154.8572087723908
 21
314.4498218231133
 31
0.0
  0
LINE
  5
2EA3
330
2
100
AcDbEntity
  8
0
 48
10.0
100
AcDbLine
 10
92.94183905000648
 20
255.9498218231133
 30
0.0
 11
128.8572087723907
 21
255.9498218231133
 31
0.0
  0
LINE
  5
2EA4
330
2
100
AcDbEntity
  8
0
 48
10.0
100
AcDbLine
 10
156.8572087723906
 20
233.4498218231133
 30
0.0
 11
154.8572087723906
 21
235.4498218231133
 31
0.0
  0
LINE
  5
2EA5
330
2
100
AcDbEntity
  8
0
 48
10.0
100
AcDbLine
 10
156.8572087723906
 20
233.4498218231133
 30
0.0
 11
193.8572087723908
 21
233.4498218231133
 31
0.0
  0
LINE
  5
2EA6
330
2
100
AcDbEntity
  8
0
 48
10.0
100
AcDbLine
 10
154.8572087723907
 20
314.4498218231133
 30
0.0
 11
154.8572087723908
 21
236.9498218231133
 31
0.0
  0
LINE
  5
2EA7
330
2
100
AcDbEntity
  8
0
 48
10.0
100
AcDbLine
 10
154.8572087723908
 20
255.9498218231133
 30
0.0
 11
154.8572087723906
 21
235.4498218231133
 31
0.0
  0
LINE
  5
2EA8
330
2
100
AcDbEntity
  8
0
 48
10.0
100
AcDbLine
 10
148.8572087723907
 20
236.9498218231133
 30
0.0
 11
154.8572087723908
 21
236.9498218231133
 31
0.0
  0
LINE
  5
2EA9
330
2
100
AcDbEntity
  8
0
 48
10.0
100
AcDbLine
 10
148.8572087723907
 20
236.9498218231133
 30
0.0
 11
146.2975131082157
 21
246.5027360937284
 31
0.0
  0
LINE
  5
2EAA
330
2
100
AcDbEntity
  8
0
 48
10.0
100
AcDbLine
 10
148.8572087723907
 20
312.9498218231133
 30
0.0
 11
146.2975131082157
 21
303.3969075524982
 31
0.0
  0
ARC
  5
2EAB
330
2
100
AcDbEntity
  8
0
 48
10.0
100
AcDbCircle
 10
140.5019581504813
 20
304.9498218231133
 30
0.0
 40
6.0
100
AcDbArc
 50
270.0
 51
344.9999999999993
  0
LINE
  5
2EAC
330
2
100
AcDbEntity
  8
0
 48
10.0
100
AcDbLine
 10
128.8572087723907
 20
298.9498218231133
 30
0.0
 11
140.5019581504813
 21
298.9498218231133
 31
0.0
  0
ARC
  5
2EAD
330
2
100
AcDbEntity
  8
0
 48
10.0
100
AcDbCircle
 10
140.5019581504813
 20
244.9498218231133
 30
0.0
 40
6.0
100
AcDbArc
 50
15.00000000000074
 51
90.0
  0
LINE
  5
2EAE
330
2
100
AcDbEntity
  8
0
 48
10.0
100
AcDbLine
 10
128.8572087723905
 20
298.9498218231133
 30
0.0
 11
128.8572087723907
 21
250.9498218231133
 31
0.0
  0
LINE
  5
2EAF
330
2
100
AcDbEntity
  8
0
 48
10.0
100
AcDbLine
 10
128.8572087723907
 20
250.9498218231133
 30
0.0
 11
140.5019581504813
 21
250.9498218231133
 31
0.0
  0
LINE
  5
2EB0
330
2
100
AcDbEntity
  8
LINIE
 48
10.0
100
AcDbLine
 10
92.94183905000625
 20
292.6498218231133
 30
0.0
 11
100.8572087723915
 21
292.6498218231133
 31
0.0
  0
LINE
  5
2EB1
330
2
100
AcDbEntity
  8
0
100
AcDbLine
 10
92.94183905000648
 20
251.9498218231133
 30
0.0
 11
58.94183905000648
 21
251.9498218231133
 31
0.0
1001
ACAD
1000
ASC_BOUNDS
1002
{
1070
    19
1005
0
1002
}
  0
LINE
  5
2EB2
330
2
100
AcDbEntity
  8
LINIE
 48
10.0
100
AcDbLine
 10
92.94183905000641
 20
257.2498218231133
 30
0.0
 11
100.8572087723915
 21
257.2498218231133
 31
0.0
  0
LINE
  5
2EB3
330
2
100
AcDbEntity
  8
0
100
AcDbLine
 10
92.94183905000625
 20
297.9498218231133
 30
0.0
 11
92.94183905000648
 21
251.9498218231133
 31
0.0
1001
ACAD
1000
ASC_BOUNDS
1002
{
1070
    19
1005
0
1002
}
  0
LINE
  5
2EB4
330
2
100
AcDbEntity
  8
0
 48
10.0
100
AcDbLine
 10
100.8572087723915
 20
255.9498218231133
 30
0.0
 11
100.8572087723915
 21
293.9498218231133
 31
0.0
  0
LINE
  5
2EB5
330
2
100
AcDbEntity
  8
0
100
AcDbLine
 10
56.94183905000648
 20
274.9498218231133
 30
0.0
 11
56.94183905000648
 21
262.5686239766303
 31
0.0
  0
LINE
  5
2EB6
330
2
100
AcDbEntity
  8
0
100
AcDbLine
 10
56.94183905000648
 20
253.9498218231133
 30
0.0
 11
56.94183905000648
 21
274.9498218231133
 31
0.0
1001
ACAD
1000
ASC_BOUNDS
1002
{
1070
    19
1005
0
1002
}
  0
LINE
  5
2EB7
330
2
100
AcDbEntity
  8
0
 48
10.0
100
AcDbLine
 10
56.94183905000648
 20
253.9498218231133
 30
0.0
 11
58.94183905000648
 21
251.9498218231133
 31
0.0
  0
LINE
  5
2EB8
330
2
100
AcDbEntity
  8
0
100
AcDbLine
 10
92.94183905000648
 20
297.9498218231133
 30
0.0
 11
58.94183905000648
 21
297.9498218231133
 31
0.0
1001
ACAD
1000
ASC_BOUNDS
1002
{
1070
    19
1005
0
1002
}
  0
LINE
  5
2EB9
330
2
100
AcDbEntity
  8
0
100
AcDbLine
 10
56.94183905000648
 20
295.9498218231133
 30
0.0
 11
56.94183905000648
 21
274.9498218231133
 31
0.0
1001
ACAD
1000
ASC_BOUNDS
1002
{
1070
    19
1005
0
1002
}
  0
LINE
  5
2EBA
330
2
100
AcDbEntity
  8
0
 48
10.0
100
AcDbLine
 10
58.94183905000648
 20
297.9498218231133
 30
0.0
 11
56.94183905000648
 21
295.9498218231133
 31
0.0
  0
LINE
  5
2EBB
330
2
100
AcDbEntity
  8
0
100
AcDbLine
 10
515.2572087729611
 20
293.9498218231133
 30
0.0
 11
481.257208772961
 21
293.9498218231133
 31
0.0
  0
LINE
  5
2EBC
330
2
100
AcDbEntity
  8
0
100
AcDbLine
 10
525.257208772961
 20
255.9498218231133
 30
0.0
 11
525.257208772961
 21
293.9498218231133
 31
0.0
  0
LINE
  5
2EBD
330
2
100
AcDbEntity
  8
0
100
AcDbLine
 10
520.2572087729611
 20
255.9498218231135
 30
0.0
 11
520.2572087729611
 21
293.9498218231133
 31
0.0
  0
LINE
  5
2EBE
330
2
100
AcDbEntity
  8
0
100
AcDbLine
 10
515.2572087729611
 20
255.9498218231135
 30
0.0
 11
515.2572087729611
 21
293.9498218231133
 31
0.0
  0
LINE
  5
2EBF
330
2
100
AcDbEntity
  8
0
100
AcDbLine
 10
525.257208772961
 20
293.9498218231133
 30
0.0
 11
520.2572087729611
 21
293.9498218231133
 31
0.0
  0
LINE
  5
2EC0
330
2
100
AcDbEntity
  8
0
100
AcDbLine
 10
520.2572087729611
 20
289.9498218231133
 30
0.0
 11
515.2572087729611
 21
289.9498218231133
 31
0.0
  0
LINE
  5
2EC1
330
2
100
AcDbEntity
  8
0
100
AcDbLine
 10
515.2572087729611
 20
255.9498218231133
 30
0.0
 11
481.257208772961
 21
255.9498218231133
 31
0.0
  0
ELLIPSE
  5
2EC2
330
2
100
AcDbEntity
  8
0
100
AcDbEllipse
 10
479.5601972208973
 20
274.9498218231133
 30
0.0
 11
0.0
 21
10.96965511460288
 31
0.0
210
0.0
220
0.0
230
1.0
 40
0.154700538379251
 41
3.141592653589793
 42
6.283185307179586
  0
LINE
  5
2EC3
330
2
100
AcDbEntity
  8
0
100
AcDbLine
 10
481.257208772961
 20
293.9498218231133
 30
0.0
 11
481.257208772961
 21
255.9498218231133
 31
0.0
  0
LINE
  5
2EC4
330
2
100
AcDbEntity
  8
0
100
AcDbLine
 10
470.2572087729611
 20
263.9801667085104
 30
0.0
 11
479.5601972208973
 21
263.9801667085104
 31
0.0
  0
LINE
  5
2EC5
330
2
100
AcDbEntity
  8
0
100
AcDbLine
 10
470.2572087729611
 20
253.0105115939075
 30
0.0
 11
479.5601972208973
 21
253.0105115939075
 31
0.0
  0
ELLIPSE
  5
2EC6
330
2
100
AcDbEntity
  8
0
100
AcDbEllipse
 10
479.5601972208973
 20
258.495339151209
 30
0.0
 11
-0.0000000000000283
 21
5.4848275573014
 31
0.0
210
0.0
220
0.0
230
-1.0
 40
0.3094010767585043
 41
0.0
 42
2.157688230906187
  0
LINE
  5
2EC7
330
2
100
AcDbEntity
  8
0
100
AcDbLine
 10
481.257208772961
 20
255.9498218231133
 30
0.0
 11
479.5601972208973
 21
253.0105115939075
 31
0.0
  0
LINE
  5
2EC8
330
2
100
AcDbEntity
  8
0
100
AcDbLine
 10
525.257208772961
 20
255.9498218231133
 30
0.0
 11
520.2572087729611
 21
255.9498218231133
 31
0.0
  0
LINE
  5
2EC9
330
2
100
AcDbEntity
  8
0
100
AcDbLine
 10
520.2572087729611
 20
259.9498218231133
 30
0.0
 11
515.2572087729611
 21
259.9498218231133
 31
0.0
  0
LINE
  5
2ECA
330
2
100
AcDbEntity
  8
0
100
AcDbLine
 10
470.2572087729611
 20
316.9498218231133
 30
0.0
 11
470.2572087729611
 21
232.9498218231133
 31
0.0
  0
LINE
  5
2ECB
330
2
100
AcDbEntity
  8
0
 48
10.0
100
AcDbLine
 10
470.2572087729611
 20
307.9498218231133
 30
0.0
 11
470.2572087729611
 21
296.889132052319
 31
0.0
  0
LINE
  5
2ECC
330
2
100
AcDbEntity
  8
0
 48
10.0
100
AcDbLine
 10
470.2572087729611
 20
296.889132052319
 30
0.0
 11
470.2572087729611
 21
253.0105115939075
 31
0.0
  0
LINE
  5
2ECD
330
2
100
AcDbEntity
  8
0
100
AcDbLine
 10
470.2572087729611
 20
296.889132052319
 30
0.0
 11
479.5601972208973
 21
296.889132052319
 31
0.0
  0
LINE
  5
2ECE
330
2
100
AcDbEntity
  8
0
100
AcDbLine
 10
470.2572087729611
 20
285.9194769377161
 30
0.0
 11
479.5601972208973
 21
285.9194769377161
 31
0.0
  0
ELLIPSE
  5
2ECF
330
2
100
AcDbEntity
  8
0
100
AcDbEllipse
 10
479.5601972208973
 20
291.4043044950176
 30
0.0
 11
0.0
 21
-5.4848275573014
 31
0.0
210
0.0
220
0.0
230
1.0
 40
0.3094010767585043
 41
0.0
 42
2.157688230906187
  0
LINE
  5
2ED0
330
2
100
AcDbEntity
  8
0
100
AcDbLine
 10
481.257208772961
 20
293.9498218231133
 30
0.0
 11
479.5601972208973
 21
296.889132052319
 31
0.0
  0
LINE
  5
2ED1
330
2
100
AcDbEntity
  8
0
 48
10.0
100
AcDbLine
 10
390.2572087723904
 20
316.9498218231133
 30
0.0
 11
470.2572087729611
 21
316.9498218231133
 31
0.0
  0
LINE
  5
2ED2
330
2
100
AcDbEntity
  8
0
 48
10.0
100
AcDbLine
 10
470.2572087729611
 20
253.0105115939075
 30
0.0
 11
470.2572087729611
 21
241.9498218231133
 31
0.0
  0
LINE
  5
2ED3
330
2
100
AcDbEntity
  8
0
 48
10.0
100
AcDbLine
 10
390.2572087723902
 20
232.9498218231133
 30
0.0
 11
470.2572087729611
 21
232.9498218231133
 31
0.0
  0
LINE
  5
2ED5
330
2
100
AcDbEntity
  8
0
 48
10.0
100
AcDbLine
 10
156.8572087723907
 20
316.4498218231133
 30
0.0
 11
156.8572087723906
 21
233.4498218231133
 31
0.0
  0
LINE
  5
2ED6
330
2
100
AcDbEntity
  8
0
 48
10.0
100
AcDbLine
 10
148.8572087723907
 20
312.9498218231133
 30
0.0
 11
148.8572087723907
 21
236.9498218231133
 31
0.0
  0
LINE
  5
2EDE
330
2
100
AcDbEntity
  8
LINIE
 48
10.0
100
AcDbLine
 10
58.94183905000648
 20
286.3076385147138
 30
0.0
 11
70.94183905000642
 21
263.5920051315128
 31
0.0
  0
LINE
  5
2EDF
330
2
100
AcDbEntity
  8
LINIE
 48
10.0
100
AcDbLine
 10
70.94183905000642
 20
286.3076385147138
 30
0.0
 11
58.94183905000648
 21
263.5920051315128
 31
0.0
  0
LINE
  5
2EE0
330
2
100
AcDbEntity
  8
0
100
AcDbLine
 10
70.94183905000642
 20
286.3076385147138
 30
0.0
 11
70.94183905000642
 21
263.5920051315128
 31
0.0
1001
ACAD
1000
ASC_BOUNDS
1002
{
1070
    19
1005
0
1002
}
  0
LINE
  5
2EE1
330
2
100
AcDbEntity
  8
0
 48
10.0
100
AcDbLine
 10
58.94183905000642
 20
286.3076385147138
 30
0.0
 11
70.94183905000642
 21
286.3076385147138
 31
0.0
  0
LINE
  5
2EE2
330
2
100
AcDbEntity
  8
0
 48
10.0
100
AcDbLine
 10
58.94183905000648
 20
263.5920051315128
 30
0.0
 11
70.94183905000642
 21
263.5920051315128
 31
0.0
  0
ELLIPSE
  5
2EE3
330
2
100
AcDbEntity
  8
0
 48
10.0
100
AcDbEllipse
 10
58.94183905000648
 20
274.9498218231133
 30
0.0
 11
-0.0000000000000142
 21
11.35781669160053
 31
0.0
210
0.0
220
0.0
230
1.0
 40
0.1760901812651262
 41
0.0
 42
3.141592653589793
  0
LINE
  5
2EE4
330
2
100
AcDbEntity
  8
LINIE
 48
10.0
100
AcDbLine
 10
106.8572087723914
 20
283.4351031973521
 30
0.0
 11
126.8572087723914
 21
266.4645404488744
 31
0.0
  0
LINE
  5
2EE5
330
2
100
AcDbEntity
  8
0
 48
10.0
100
AcDbLine
 10
106.8572087723914
 20
266.4645404488744
 30
0.0
 11
106.8572087723914
 21
283.4351031973522
 31
0.0
  0
LINE
  5
2EE6
330
2
100
AcDbEntity
  8
0
 48
10.0
100
AcDbLine
 10
126.8572087723914
 20
283.4351031973521
 30
0.0
 11
106.8572087723914
 21
283.4351031973521
 31
0.0
  0
LINE
  5
2EE7
330
2
100
AcDbEntity
  8
LINIE
 48
10.0
100
AcDbLine
 10
106.8572087723914
 20
266.4645404488744
 30
0.0
 11
126.8572087723914
 21
283.4351031973521
 31
0.0
  0
LINE
  5
2EE8
330
2
100
AcDbEntity
  8
0
 48
10.0
100
AcDbLine
 10
126.8572087723914
 20
266.4645404488744
 30
0.0
 11
126.8572087723914
 21
283.4351031973521
 31
0.0
  0
LINE
  5
2EE9
330
2
100
AcDbEntity
  8
0
 48
10.0
100
AcDbLine
 10
126.8572087723914
 20
266.4645404488744
 30
0.0
 11
106.8572087723914
 21
266.4645404488744
 31
0.0
  0
LINE
  5
2EEF
330
2
100
AcDbEntity
  8
0
 48
10.0
100
AcDbLine
 10
58.94183905000648
 20
297.9498218231133
 30
0.0
 11
58.94183905000648
 21
286.3076385147138
 31
0.0
  0
LINE
  5
2EF0
330
2
100
AcDbEntity
  8
0
 48
10.0
100
AcDbLine
 10
58.94183905000648
 20
263.5920051315128
 30
0.0
 11
58.94183905000648
 21
251.9498218231133
 31
0.0
  0
LINE
  5
2FFA
330
2
100
AcDbEntity
  8
MITTE
 48
10.0
100
AcDbLine
 10
50.87246875256915
 20
274.9498218231133
 30
0.0
 11
529.7578030138986
 21
274.9498218231133
 31
0.0
  0
ENDSEC
  0
SECTION
  2
OBJECTS
  0
DICTIONARY
  5
1A
330
0
100
AcDbDictionary
281
     1
  3
ACAD_COLOR
350
21F3
  3
ACAD_GROUP
350
18
  3
ACAD_LAYOUT
350
99
  3
ACAD_MATERIAL
350
21F2
  3
ACAD_MLEADERSTYLE
350
306C
  3
ACAD_MLINESTYLE
350
19
  3
ACAD_PLOTSETTINGS
350
9A
  3
ACAD_PLOTSTYLENAME
350
97
  3
ACAD_SCALELIST
350
304A
  3
ACAD_TABLESTYLE
350
279F
  3
ACAD_VISUALSTYLE
350
2D2A
  3
ACDB_RECOMPOSE_DATA
350
30B3
  3
ACDBVARIABLEDICTIONARY
350
7D
  3
AcmDictionary
350
AF
  3
AMG
350
A0
  3
AMGSNAPSETTINGS
350
C0
  3
ASE_INDEX_DICTIONARY
350
30AB
  0
DICTIONARY
  5
309B
330
8
100
AcDbDictionary
280
     1
281
     1
  3
ADSK_XREC_LAYER_RECONCILED
360
309C
  0
DICTIONARY
  5
309D
330
27
100
AcDbDictionary
280
     1
281
     1
  3
ADSK_XREC_LAYER_RECONCILED
360
309E
  0
DICTIONARY
  5
309F
330
22
100
AcDbDictionary
280
     1
281
     1
  3
ADSK_XREC_LAYER_RECONCILED
360
30A0
  0
DICTIONARY
  5
30A1
330
20
100
AcDbDictionary
280
     1
281
     1
  3
ADSK_XREC_LAYER_RECONCILED
360
30A2
  0
DICTIONARY
  5
30A3
330
2523
100
AcDbDictionary
280
     1
281
     1
  3
ADSK_XREC_LAYER_RECONCILED
360
30A4
  0
DICTIONARY
  5
3079
330
3078
100
AcDbDictionary
280
     1
281
     1
  3
ADSK_XREC_LAYER_RECONCILED
360
30A5
  0
DICTIONARY
  5
307B
330
307A
100
AcDbDictionary
280
     1
281
     1
  3
ADSK_XREC_LAYER_RECONCILED
360
30A6
  0
DICTIONARY
  5
307D
330
307C
100
AcDbDictionary
280
     1
281
     1
  3
ADSK_XREC_LAYER_RECONCILED
360
30A7
  0
DICTIONARY
  5
307F
330
307E
100
AcDbDictionary
280
     1
281
     1
  3
ADSK_XREC_LAYER_RECONCILED
360
30A8
  0
DICTIONARY
  5
3081
330
3080
100
AcDbDictionary
280
     1
281
     1
  3
ADSK_XREC_LAYER_RECONCILED
360
30A9
  0
DICTIONARY
  5
7F
330
2
100
AcDbDictionary
280
     1
281
     1
  3
ACAD_SORTENTS
360
288E
  0
DICTIONARY
  5
21F3
102
{ACAD_REACTORS
330
1A
102
}
330
1A
100
AcDbDictionary
281
     1
  0
DICTIONARY
  5
18
102
{ACAD_REACTORS
330
1A
102
}
330
1A
100
AcDbDictionary
281
     1
  0
DICTIONARY
  5
99
102
{ACAD_REACTORS
330
1A
102
}
330
1A
100
AcDbDictionary
281
     1
  3
Layout1
350
9C
  3
Model
350
9B
  0
DICTIONARY
  5
21F2
102
{ACAD_REACTORS
330
1A
102
}
330
1A
100
AcDbDictionary
281
     1
  3
ByBlock
350
2D28
  3
ByLayer
350
2D27
  3
Global
350
2D29
  0
DICTIONARY
  5
306C
102
{ACAD_REACTORS
330
1A
102
}
330
1A
100
AcDbDictionary
281
     1
  3
Standard
350
306D
  0
DICTIONARY
  5
19
102
{ACAD_REACTORS
330
1A
102
}
330
1A
100
AcDbDictionary
281
     1
  3
STANDARD
350
1C
  0
DICTIONARY
  5
9A
102
{ACAD_REACTORS
330
1A
102
}
330
1A
100
AcDbDictionary
281
     1
  0
ACDBDICTIONARYWDFLT
  5
97
102
{ACAD_REACTORS
330
1A
102
}
330
1A
100
AcDbDictionary
281
     1
  3
Normal
350
98
100
AcDbDictionaryWithDefault
340
98
  0
DICTIONARY
  5
304A
102
{ACAD_REACTORS
330
1A
102
}
330
1A
100
AcDbDictionary
281
     1
  3
A0
350
304B
  3
A1
350
304C
  3
A2
350
304D
  3
A3
350
304E
  3
A4
350
304F
  3
A5
350
3050
  3
A6
350
3051
  3
A7
350
3052
  3
A8
350
3053
  3
A9
350
3054
  3
B0
350
3055
  3
B1
350
3056
  3
B2
350
3057
  3
B3
350
3058
  3
B4
350
3059
  3
B5
350
305A
  3
B6
350
305B
  3
B7
350
305C
  3
B8
350
305D
  3
B9
350
305E
  3
C0
350
305F
  3
C1
350
3060
  3
C2
350
3061
  3
C3
350
3062
  3
C4
350
3063
  3
C5
350
3064
  3
C6
350
3065
  3
C7
350
3066
  3
C8
350
3067
  3
C9
350
3068
  3
D0
350
3069
  3
D1
350
306A
  3
D2
350
306B
  0
DICTIONARY
  5
279F
102
{ACAD_REACTORS
330
1A
102
}
330
1A
100
AcDbDictionary
281
     1
  3
Standard
350
27A0
  0
DICTIONARY
  5
2D2A
102
{ACAD_REACTORS
330
1A
102
}
330
1A
100
AcDbDictionary
281
     1
  3
2dWireframe
350
2D30
  3
3D Hidden
350
2D32
  3
3dWireframe
350
2D31
  3
Basic
350
2D2F
  3
Brighten
350
2D36
  3
ColorChange
350
2D3A
  3
Conceptual
350
2D33
  3
Dim
350
2D35
  3
Facepattern
350
2D39
  3
Flat
350
2D2B
  3
FlatWithEdges
350
2D2C
  3
Gouraud
350
2D2D
  3
GouraudWithEdges
350
2D2E
  3
Linepattern
350
2D38
  3
Realistic
350
2D34
  3
Thicken
350
2D37
  0
XRECORD
  5
30B3
102
{ACAD_REACTORS
330
1A
102
}
330
1A
100
AcDbXrecord
280
     1
 90
        1
330
27A0
  0
DICTIONARY
  5
7D
102
{ACAD_REACTORS
330
1A
102
}
330
1A
100
AcDbDictionary
281
     1
  3
CANNOSCALE
350
30AF
  3
CMLEADERSTYLE
350
30AD
  3
CTABLESTYLE
350
27CA
  3
DIMASSOC
350
1B82
  3
INDEXCTL
350
7E
  3
LIGHTINGUNITS
350
30B0
  3
MSLTSCALE
350
30AE
  3
SORTENTS
350
1332
  0
DICTIONARY
  5
AF
102
{ACAD_REACTORS
330
1A
102
}
330
1A
100
AcDbDictionary
281
     1
  3
AcmStdDictionary
350
225B
  3
AMDTSECTSYM_ARROWCOLOR
350
27C1
  0
DICTIONARY
  5
A0
102
{ACAD_REACTORS
330
1A
102
}
330
1A
100
AcDbDictionary
281
     1
  0
DICTIONARY
  5
C0
102
{ACAD_REACTORS
330
1A
102
}
330
1A
100
AcDbDictionary
281
     1
  0
DICTIONARY
  5
30AB
102
{ACAD_REACTORS
330
1A
102
}
330
1A
100
AcDbDictionary
281
     1
  3
ASEBlockHierarchyIndexRecord
350
30AC
1001
DCO15
1040
1683538327.51
  0
XRECORD
  5
309C
102
{ACAD_REACTORS
330
309B
102
}
330
309B
100
AcDbXrecord
280
     1
290
     1
  0
XRECORD
  5
309E
102
{ACAD_REACTORS
330
309D
102
}
330
309D
100
AcDbXrecord
280
     1
290
     1
  0
XRECORD
  5
30A0
102
{ACAD_REACTORS
330
309F
102
}
330
309F
100
AcDbXrecord
280
     1
290
     1
  0
XRECORD
  5
30A2
102
{ACAD_REACTORS
330
30A1
102
}
330
30A1
100
AcDbXrecord
280
     1
290
     1
  0
XRECORD
  5
30A4
102
{ACAD_REACTORS
330
30A3
102
}
330
30A3
100
AcDbXrecord
280
     1
290
     1
  0
XRECORD
  5
30A5
102
{ACAD_REACTORS
330
3079
102
}
330
3079
100
AcDbXrecord
280
     1
290
     1
  0
XRECORD
  5
30A6
102
{ACAD_REACTORS
330
307B
102
}
330
307B
100
AcDbXrecord
280
     1
290
     1
  0
XRECORD
  5
30A7
102
{ACAD_REACTORS
330
307D
102
}
330
307D
100
AcDbXrecord
280
     1
290
     1
  0
XRECORD
  5
30A8
102
{ACAD_REACTORS
330
307F
102
}
330
307F
100
AcDbXrecord
280
     1
290
     1
  0
XRECORD
  5
30A9
102
{ACAD_REACTORS
330
3081
102
}
330
3081
100
AcDbXrecord
280
     1
290
     1
  0
SORTENTSTABLE
  5
288E
102
{ACAD_REACTORS
330
7F
102
}
330
7F
100
AcDbSortentsTable
330
2
331
2ECD
  5
2ECD
331
2E96
  5
2E96
331
2ED5
  5
2ED5
331
2E9E
  5
2E9E
331
2EA6
  5
2EA6
331
1474
  5
242F
331
2EAE
  5
2EAE
331
2EE5
  5
2EE5
331
2EB6
  5
2EB6
331
2EBE
  5
2EBE
331
2EC6
  5
2EC6
331
2FFA
  5
2EFD
331
2ECE
  5
2ECE
331
2E97
  5
2E97
331
2ED6
  5
2ED6
331
2E9F
  5
2E9F
331
2EDE
  5
2EDE
331
2EA7
  5
2EA7
331
1925
  5
2430
331
2EAF
  5
2EAF
331
2EE6
  5
2EE6
331
2EB7
  5
2EB7
331
2EBF
  5
2EBF
331
2EC7
  5
2EC7
331
2ECF
  5
2ECF
331
2EA0
  5
2EA0
331
2EDF
  5
2EDF
331
2EA8
  5
2EA8
331
2EE7
  5
2EE7
331
2EB0
  5
2EB0
331
2EB8
  5
2EB8
331
2EEF
  5
2EEF
331
2EC0
  5
2EC0
331
2EC8
  5
2EC8
331
2ED0
  5
2ED0
331
2E99
  5
2E99
331
2EA1
  5
2EA1
331
2EA9
  5
2EA9
331
2EE0
  5
2EE0
331
2EB1
  5
2EB1
331
2EE8
  5
2EE8
331
2EB9
  5
2EB9
331
2EF0
  5
2EF0
331
2EC1
  5
2EC1
331
2EC9
  5
2EC9
331
2ED1
  5
2ED1
331
2E9A
  5
2E9A
331
2EA2
  5
2EA2
331
2EAA
  5
2EAA
331
2EE1
  5
2EE1
331
2EB2
  5
2EB2
331
2EE9
  5
2EE9
331
2EBA
  5
2EBA
331
2EC2
  5
2EC2
331
2ECA
  5
2ECA
331
2ED2
  5
2ED2
331
2E9B
  5
2E9B
331
2EA3
  5
2EA3
331
2EAB
  5
2EAB
331
2EE2
  5
2EE2
331
2EB3
  5
2EB3
331
2EBB
  5
2EBB
331
2EC3
  5
2EC3
331
2ECB
  5
2ECB
331
2E94
  5
2E94
331
2ED3
  5
2ED3
331
2E9C
  5
2E9C
331
2EA4
  5
2EA4
331
2EAC
  5
2EAC
331
2EE3
  5
2EE3
331
2EB4
  5
2EB4
331
2EBC
  5
2EBC
331
2EC4
  5
2EC4
331
2ECC
  5
2ECC
331
2E95
  5
2E95
331
2EA5
  5
2EA5
331
2EAD
  5
2EAD
331
2EE4
  5
2EE4
331
2EB5
  5
2EB5
331
2EBD
  5
2EBD
331
2EC5
  5
2EC5
  0
LAYOUT
  5
9C
102
{ACAD_REACTORS
330
99
102
}
330
99
100
AcDbPlotSettings
  1

  2
HP LaserJet 6P
  4

  6

 40
0.0
 41
0.0
 42
0.0
 43
0.0
 44
0.0
 45
0.0
 46
0.0
 47
0.0
 48
0.0
 49
0.0
140
0.0
141
0.0
142
1.0
143
1.0
 70
   688
 72
     0
 73
     0
 74
     5
  7
Zeich.ctb
 75
    16
147
1.0
 76
     0
 77
     2
 78
   300
148
0.0
149
0.0
100
AcDbLayout
  1
Layout1
 70
     0
 71
     1
 10
0.0
 20
0.0
 11
420.0
 21
297.0
 12
0.0
 22
0.0
 32
0.0
 14
1.000000000000000E+20
 24
1.000000000000000E+20
 34
1.000000000000000E+20
 15
-1.000000000000000E+20
 25
-1.000000000000000E+20
 35
-1.000000000000000E+20
146
0.0
 13
0.0
 23
0.0
 33
0.0
 16
1.0
 26
0.0
 36
0.0
 17
0.0
 27
1.0
 37
0.0
 76
     0
330
3
  0
LAYOUT
  5
9B
102
{ACAD_REACTORS
330
99
102
}
330
99
100
AcDbPlotSettings
  1

  2
FRITZfax Drucker
  4
A4
  6

 40
3.174999952316284
 41
3.174999952316284
 42
3.175003051757812
 43
3.17498779296875
 44
209.9309997558594
 45
296.9259948730469
 46
0.0
 47
1.559872694182416
 48
-0.0000000000001146
 49
15.0
140
593.0
141
435.0000000000001
142
1.0
143
2.063164361092671
 70
 11956
 72
     1
 73
     1
 74
     1
  7
Zeich.ctb
 75
     0
147
0.4846923584267377
 76
     0
 77
     2
 78
   300
148
0.047676439385441
149
-14.98947250073479
100
AcDbLayout
  1
Model
 70
     1
 71
     0
 10
0.0
 20
0.0
 11
12.0
 21
9.0
 12
0.0
 22
0.0
 32
0.0
 14
0.0
 24
0.0
 34
0.0
 15
0.0
 25
0.0
 35
0.0
146
0.0
 13
0.0
 23
0.0
 33
0.0
 16
1.0
 26
0.0
 36
0.0
 17
0.0
 27
1.0
 37
0.0
 76
     0
330
2
331
2D25
1001
ACAD_PSEXT
1000
FRITZfax Drucker
1000
FRITZfax
1000
FRITZ!fax:
1000

1070
     0
  0
MATERIAL
  5
2D28
102
{ACAD_REACTORS
330
21F2
102
}
330
21F2
100
AcDbMaterial
  1
ByBlock
 73
     1
 78
     1
172
     1
176
     1
270
     1
274
     1
 94
       63
  0
MATERIAL
  5
2D27
102
{ACAD_REACTORS
330
21F2
102
}
330
21F2
100
AcDbMaterial
  1
ByLayer
 73
     1
 78
     1
172
     1
176
     1
270
     1
274
     1
 94
       63
  0
MATERIAL
  5
2D29
102
{ACAD_REACTORS
330
21F2
102
}
330
21F2
100
AcDbMaterial
  1
Global
 73
     1
 78
     1
172
     1
176
     1
270
     1
274
     1
 94
       63
  0
MLEADERSTYLE
  5
306D
102
{ACAD_REACTORS
330
306C
102
}
330
306C
100
AcDbMLeaderStyle
170
     2
171
     1
172
     0
 90
        2
 40
0.0
 41
0.0
173
     1
 91
-1056964608
340
F
 92
       -2
290
     1
 42
0.09
291
     1
 43
0.36
  3
Standard
 44
0.18
300

342
D
174
     1
178
     6
175
     1
176
     0
 93
-1056964608
 45
0.18
292
     0
297
     0
 46
0.18
 94
-1056964608
 47
1.0
 49
1.0
140
1.0
293
     1
141
0.0
294
     1
177
     0
142
1.0
295
     0
296
     0
143
0.125
1001
ACAD_MLEADERVER
1070
     2
  0
MLINESTYLE
  5
1C
102
{ACAD_REACTORS
330
19
102
}
330
19
100
AcDbMlineStyle
  2
STANDARD
 70
     0
  3

 62
     0
 51
90.0
 52
90.0
 71
     2
 49
0.5
 62
   256
  6
BYLAYER
 49
-0.5
 62
   256
  6
BYLAYER
  0
ACDBPLACEHOLDER
  5
98
102
{ACAD_REACTORS
330
97
102
}
330
97
  0
SCALE
  5
304B
102
{ACAD_REACTORS
330
304A
102
}
330
304A
100
AcDbScale
 70
     0
300
1:1
140
1.0
141
1.0
290
     1
  0
SCALE
  5
304C
102
{ACAD_REACTORS
330
304A
102
}
330
304A
100
AcDbScale
 70
     0
300
1:2
140
1.0
141
2.0
290
     0
  0
SCALE
  5
304D
102
{ACAD_REACTORS
330
304A
102
}
330
304A
100
AcDbScale
 70
     0
300
1:4
140
1.0
141
4.0
290
     0
  0
SCALE
  5
304E
102
{ACAD_REACTORS
330
304A
102
}
330
304A
100
AcDbScale
 70
     0
300
1:5
140
1.0
141
5.0
290
     0
  0
SCALE
  5
304F
102
{ACAD_REACTORS
330
304A
102
}
330
304A
100
AcDbScale
 70
     0
300
1:8
140
1.0
141
8.0
290
     0
  0
SCALE
  5
3050
102
{ACAD_REACTORS
330
304A
102
}
330
304A
100
AcDbScale
 70
     0
300
1:10
140
1.0
141
10.0
290
     0
  0
SCALE
  5
3051
102
{ACAD_REACTORS
330
304A
102
}
330
304A
100
AcDbScale
 70
     0
300
1:16
140
1.0
141
16.0
290
     0
  0
SCALE
  5
3052
102
{ACAD_REACTORS
330
304A
102
}
330
304A
100
AcDbScale
 70
     0
300
1:20
140
1.0
141
20.0
290
     0
  0
SCALE
  5
3053
102
{ACAD_REACTORS
330
304A
102
}
330
304A
100
AcDbScale
 70
     0
300
1:30
140
1.0
141
30.0
290
     0
  0
SCALE
  5
3054
102
{ACAD_REACTORS
330
304A
102
}
330
304A
100
AcDbScale
 70
     0
300
1:40
140
1.0
141
40.0
290
     0
  0
SCALE
  5
3055
102
{ACAD_REACTORS
330
304A
102
}
330
304A
100
AcDbScale
 70
     0
300
1:50
140
1.0
141
50.0
290
     0
  0
SCALE
  5
3056
102
{ACAD_REACTORS
330
304A
102
}
330
304A
100
AcDbScale
 70
     0
300
1:100
140
1.0
141
100.0
290
     0
  0
SCALE
  5
3057
102
{ACAD_REACTORS
330
304A
102
}
330
304A
100
AcDbScale
 70
     0
300
2:1
140
2.0
141
1.0
290
     0
  0
SCALE
  5
3058
102
{ACAD_REACTORS
330
304A
102
}
330
304A
100
AcDbScale
 70
     0
300
4:1
140
4.0
141
1.0
290
     0
  0
SCALE
  5
3059
102
{ACAD_REACTORS
330
304A
102
}
330
304A
100
AcDbScale
 70
     0
300
8:1
140
8.0
141
1.0
290
     0
  0
SCALE
  5
305A
102
{ACAD_REACTORS
330
304A
102
}
330
304A
100
AcDbScale
 70
     0
300
10:1
140
10.0
141
1.0
290
     0
  0
SCALE
  5
305B
102
{ACAD_REACTORS
330
304A
102
}
330
304A
100
AcDbScale
 70
     0
300
100:1
140
100.0
141
1.0
290
     0
  0
SCALE
  5
305C
102
{ACAD_REACTORS
330
304A
102
}
330
304A
100
AcDbScale
 70
     0
300
1/128" = 1'-0"
140
0.0078125
141
12.0
290
     0
  0
SCALE
  5
305D
102
{ACAD_REACTORS
330
304A
102
}
330
304A
100
AcDbScale
 70
     0
300
1/64" = 1'-0"
140
0.015625
141
12.0
290
     0
  0
SCALE
  5
305E
102
{ACAD_REACTORS
330
304A
102
}
330
304A
100
AcDbScale
 70
     0
300
1/32" = 1'-0"
140
0.03125
141
12.0
290
     0
  0
SCALE
  5
305F
102
{ACAD_REACTORS
330
304A
102
}
330
304A
100
AcDbScale
 70
     0
300
1/16" = 1'-0"
140
0.0625
141
12.0
290
     0
  0
SCALE
  5
3060
102
{ACAD_REACTORS
330
304A
102
}
330
304A
100
AcDbScale
 70
     0
300
3/32" = 1'-0"
140
0.09375
141
12.0
290
     0
  0
SCALE
  5
3061
102
{ACAD_REACTORS
330
304A
102
}
330
304A
100
AcDbScale
 70
     0
300
1/8" = 1'-0"
140
0.125
141
12.0
290
     0
  0
SCALE
  5
3062
102
{ACAD_REACTORS
330
304A
102
}
330
304A
100
AcDbScale
 70
     0
300
3/16" = 1'-0"
140
0.1875
141
12.0
290
     0
  0
SCALE
  5
3063
102
{ACAD_REACTORS
330
304A
102
}
330
304A
100
AcDbScale
 70
     0
300
1/4" = 1'-0"
140
0.25
141
12.0
290
     0
  0
SCALE
  5
3064
102
{ACAD_REACTORS
330
304A
102
}
330
304A
100
AcDbScale
 70
     0
300
3/8" = 1'-0"
140
0.375
141
12.0
290
     0
  0
SCALE
  5
3065
102
{ACAD_REACTORS
330
304A
102
}
330
304A
100
AcDbScale
 70
     0
300
1/2" = 1'-0"
140
0.5
141
12.0
290
     0
  0
SCALE
  5
3066
102
{ACAD_REACTORS
330
304A
102
}
330
304A
100
AcDbScale
 70
     0
300
3/4" = 1'-0"
140
0.75
141
12.0
290
     0
  0
SCALE
  5
3067
102
{ACAD_REACTORS
330
304A
102
}
330
304A
100
AcDbScale
 70
     0
300
1" = 1'-0"
140
1.0
141
12.0
290
     0
  0
SCALE
  5
3068
102
{ACAD_REACTORS
330
304A
102
}
330
304A
100
AcDbScale
 70
     0
300
1-1/2" = 1'-0"
140
1.5
141
12.0
290
     0
  0
SCALE
  5
3069
102
{ACAD_REACTORS
330
304A
102
}
330
304A
100
AcDbScale
 70
     0
300
3" = 1'-0"
140
3.0
141
12.0
290
     0
  0
SCALE
  5
306A
102
{ACAD_REACTORS
330
304A
102
}
330
304A
100
AcDbScale
 70
     0
300
6" = 1'-0"
140
6.0
141
12.0
290
     0
  0
SCALE
  5
306B
102
{ACAD_REACTORS
330
304A
102
}
330
304A
100
AcDbScale
 70
     0
300
1'-0" = 1'-0"
140
12.0
141
12.0
290
     0
  0
TABLESTYLE
  5
27A0
102
{ACAD_XDICTIONARY
360
30B1
102
}
102
{ACAD_REACTORS
330
279F
102
}
330
279F
100
AcDbTableStyle
  3
Standard
 70
     0
 71
     0
 40
0.06
 41
0.06
280
     0
281
     0
  7
STANDARD
140
0.18
170
     2
 62
     0
 63
     7
283
     0
 90
        4
 91
        0
  1

274
    -2
284
     1
 64
     0
275
    -2
285
     1
 65
     0
276
    -2
286
     1
 66
     0
277
    -2
287
     1
 67
     0
278
    -2
288
     1
 68
     0
279
    -2
289
     1
 69
     0
  7
STANDARD
140
0.25
170
     5
 62
     0
 63
     7
283
     0
 90
        4
 91
        0
  1

274
    -2
284
     1
 64
     0
275
    -2
285
     1
 65
     0
276
    -2
286
     1
 66
     0
277
    -2
287
     1
 67
     0
278
    -2
288
     1
 68
     0
279
    -2
289
     1
 69
     0
  7
STANDARD
140
0.18
170
     5
 62
     0
 63
     7
283
     0
 90
        4
 91
        0
  1

274
    -2
284
     1
 64
     0
275
    -2
285
     1
 65
     0
276
    -2
286
     1
 66
     0
277
    -2
287
     1
 67
     0
278
    -2
288
     1
 68
     0
279
    -2
289
     1
 69
     0
  0
VISUALSTYLE
  5
2D30
102
{ACAD_REACTORS
330
2D2A
102
}
330
2D2A
100
AcDbVisualStyle
  2
2dWireframe
 70
     4
 71
     0
 72
     2
 73
     0
 90
        0
 40
-0.6
 41
-30.0
 62
     5
 63
     7
421
 16777215
 74
     1
 91
        4
 64
     7
 65
   257
 75
     1
175
     1
 42
1.0
 92
        0
 66
   257
 43
1.0
 76
     1
 77
     6
 78
     2
 67
     7
 79
     5
170
     0
171
     0
290
     0
174
     0
 93
        1
 44
0.0
173
     0
291
     0
 45
0.0
  0
VISUALSTYLE
  5
2D32
102
{ACAD_REACTORS
330
2D2A
102
}
330
2D2A
100
AcDbVisualStyle
  2
3D Hidden
 70
     6
 71
     1
 72
     2
 73
     2
 90
        0
 40
-0.6
 41
-30.0
 62
     5
 63
     7
421
 16777215
 74
     2
 91
        2
 64
     7
 65
   257
 75
     2
175
     1
 42
40.0
 92
        0
 66
   257
 43
1.0
 76
     1
 77
     6
 78
     2
 67
     7
 79
     3
170
     0
171
     0
290
     0
174
     0
 93
        1
 44
0.0
173
     0
291
     0
 45
0.0
  0
VISUALSTYLE
  5
2D31
102
{ACAD_REACTORS
330
2D2A
102
}
330
2D2A
100
AcDbVisualStyle
  2
3dWireframe
 70
     5
 71
     0
 72
     2
 73
     0
 90
        0
 40
-0.6
 41
-30.0
 62
     5
 63
     7
421
 16777215
 74
     1
 91
        4
 64
     7
 65
   257
 75
     1
175
     1
 42
1.0
 92
        0
 66
   257
 43
1.0
 76
     1
 77
     6
 78
     2
 67
     7
 79
     5
170
     0
171
     0
290
     0
174
     0
 93
        1
 44
0.0
173
     0
291
     0
 45
0.0
  0
VISUALSTYLE
  5
2D2F
102
{ACAD_REACTORS
330
2D2A
102
}
330
2D2A
100
AcDbVisualStyle
  2
Basic
 70
     7
 71
     1
 72
     0
 73
     1
 90
        0
 40
-0.6
 41
-30.0
 62
     5
 63
     7
421
 16777215
 74
     0
 91
        4
 64
     7
 65
   257
 75
     1
175
     1
 42
1.0
 92
        8
 66
     7
 43
1.0
 76
     1
 77
     6
 78
     2
 67
     7
 79
     5
170
     0
171
     0
290
     0
174
     0
 93
        1
 44
0.0
173
     0
291
     1
 45
0.0
  0
VISUALSTYLE
  5
2D36
102
{ACAD_REACTORS
330
2D2A
102
}
330
2D2A
100
AcDbVisualStyle
  2
Brighten
 70
    12
 71
     2
 72
     2
 73
     0
 90
        0
 40
-0.6
 41
-30.0
 62
     5
 63
     7
421
 16777215
 74
     1
 91
        4
 64
     7
 65
   257
 75
     1
175
     1
 42
1.0
 92
        8
 66
     7
 43
1.0
 76
     1
 77
     6
 78
     2
 67
     7
 79
     5
170
     0
171
     0
290
     0
174
     0
 93
        1
 44
50.0
173
     0
291
     1
 45
0.0
  0
VISUALSTYLE
  5
2D3A
102
{ACAD_REACTORS
330
2D2A
102
}
330
2D2A
100
AcDbVisualStyle
  2
ColorChange
 70
    16
 71
     2
 72
     2
 73
     3
 90
        0
 40
-0.6
 41
-30.0
 62
     5
 63
     8
421
  8421504
 74
     1
 91
        4
 64
     7
 65
   257
 75
     1
175
     1
 42
1.0
 92
        8
 66
     8
424
  8421504
 43
1.0
 76
     1
 77
     6
 78
     2
 67
     7
 79
     5
170
     0
171
     0
290
     0
174
     0
 93
        1
 44
0.0
173
     0
291
     1
 45
0.0
  0
VISUALSTYLE
  5
2D33
102
{ACAD_REACTORS
330
2D2A
102
}
330
2D2A
100
AcDbVisualStyle
  2
Conceptual
 70
     9
 71
     3
 72
     2
 73
     0
 90
        0
 40
-0.6
 41
-30.0
 62
     5
 63
     7
421
 16777215
 74
     2
 91
        2
 64
     7
 65
   257
 75
     1
175
     1
 42
40.0
 92
        8
 66
     7
 43
1.0
 76
     1
 77
     6
 78
     2
 67
     7
 79
     3
170
     0
171
     0
290
     0
174
     0
 93
        1
 44
0.0
173
     0
291
     0
 45
0.0
  0
VISUALSTYLE
  5
2D35
102
{ACAD_REACTORS
330
2D2A
102
}
330
2D2A
100
AcDbVisualStyle
  2
Dim
 70
    11
 71
     2
 72
     2
 73
     0
 90
        0
 40
-0.6
 41
-30.0
 62
     5
 63
     7
421
 16777215
 74
     1
 91
        4
 64
     7
 65
   257
 75
     1
175
     1
 42
1.0
 92
        8
 66
     7
 43
1.0
 76
     1
 77
     6
 78
     2
 67
     7
 79
     5
170
     0
171
     0
290
     0
174
     0
 93
        1
 44
-50.0
173
     0
291
     1
 45
0.0
  0
VISUALSTYLE
  5
2D39
102
{ACAD_REACTORS
330
2D2A
102
}
330
2D2A
100
AcDbVisualStyle
  2
Facepattern
 70
    15
 71
     2
 72
     2
 73
     0
 90
        0
 40
-0.6
 41
-30.0
 62
     5
 63
     7
421
 16777215
 74
     1
 91
        4
 64
     7
 65
   257
 75
     1
175
     1
 42
1.0
 92
        8
 66
     7
 43
1.0
 76
     1
 77
     6
 78
     2
 67
     7
 79
     5
170
     0
171
     0
290
     0
174
     0
 93
        1
 44
0.0
173
     0
291
     1
 45
0.0
  0
VISUALSTYLE
  5
2D2B
102
{ACAD_REACTORS
330
2D2A
102
}
330
2D2A
100
AcDbVisualStyle
  2
Flat
 70
     0
 71
     2
 72
     1
 73
     1
 90
        2
 40
-0.6
 41
30.0
 62
     5
 63
     7
421
 16777215
 74
     0
 91
        4
 64
     7
 65
   257
 75
     1
175
     1
 42
1.0
 92
        8
 66
     7
 43
1.0
 76
     1
 77
     6
 78
     2
 67
     7
 79
     5
170
     0
171
     0
290
     0
174
     0
 93
       13
 44
0.0
173
     0
291
     1
 45
0.0
  0
VISUALSTYLE
  5
2D2C
102
{ACAD_REACTORS
330
2D2A
102
}
330
2D2A
100
AcDbVisualStyle
  2
FlatWithEdges
 70
     1
 71
     2
 72
     1
 73
     1
 90
        2
 40
-0.6
 41
30.0
 62
     5
 63
     7
421
 16777215
 74
     1
 91
        4
 64
     7
 65
   257
 75
     1
175
     1
 42
1.0
 92
        0
 66
   257
 43
1.0
 76
     1
 77
     6
 78
     2
 67
     7
 79
     5
170
     0
171
     0
290
     0
174
     0
 93
       13
 44
0.0
173
     0
291
     1
 45
0.0
  0
VISUALSTYLE
  5
2D2D
102
{ACAD_REACTORS
330
2D2A
102
}
330
2D2A
100
AcDbVisualStyle
  2
Gouraud
 70
     2
 71
     2
 72
     2
 73
     1
 90
        2
 40
-0.6
 41
30.0
 62
     5
 63
     7
421
 16777215
 74
     0
 91
        4
 64
     7
 65
   257
 75
     1
175
     1
 42
1.0
 92
        0
 66
     7
 43
1.0
 76
     1
 77
     6
 78
     2
 67
     7
 79
     5
170
     0
171
     0
290
     0
174
     0
 93
       13
 44
0.0
173
     0
291
     1
 45
0.0
  0
VISUALSTYLE
  5
2D2E
102
{ACAD_REACTORS
330
2D2A
102
}
330
2D2A
100
AcDbVisualStyle
  2
GouraudWithEdges
 70
     3
 71
     2
 72
     2
 73
     1
 90
        2
 40
-0.6
 41
30.0
 62
     5
 63
     7
421
 16777215
 74
     1
 91
        4
 64
     7
 65
   257
 75
     1
175
     1
 42
1.0
 92
        0
 66
   257
 43
1.0
 76
     1
 77
     6
 78
     2
 67
     7
 79
     5
170
     0
171
     0
290
     0
174
     0
 93
       13
 44
0.0
173
     0
291
     1
 45
0.0
  0
VISUALSTYLE
  5
2D38
102
{ACAD_REACTORS
330
2D2A
102
}
330
2D2A
100
AcDbVisualStyle
  2
Linepattern
 70
    14
 71
     2
 72
     2
 73
     0
 90
        0
 40
-0.6
 41
-30.0
 62
     5
 63
     7
421
 16777215
 74
     1
 91
        4
 64
     7
 65
   257
 75
     7
175
     7
 42
1.0
 92
        8
 66
     7
 43
1.0
 76
     1
 77
     6
 78
     2
 67
     7
 79
     5
170
     0
171
     0
290
     0
174
     0
 93
        1
 44
0.0
173
     0
291
     1
 45
0.0
  0
VISUALSTYLE
  5
2D34
102
{ACAD_REACTORS
330
2D2A
102
}
330
2D2A
100
AcDbVisualStyle
  2
Realistic
 70
     8
 71
     2
 72
     2
 73
     0
 90
        0
 40
-0.6
 41
-30.0
 62
     5
 63
     7
421
 16777215
 74
     1
 91
        0
 64
     7
 65
   257
 75
     1
175
     1
 42
1.0
 92
        8
 66
     8
424
  7895160
 43
1.0
 76
     1
 77
     6
 78
     2
 67
     7
 79
     5
170
     0
171
     0
290
     0
174
     0
 93
       13
 44
0.0
173
     0
291
     0
 45
0.0
  0
VISUALSTYLE
  5
2D37
102
{ACAD_REACTORS
330
2D2A
102
}
330
2D2A
100
AcDbVisualStyle
  2
Thicken
 70
    13
 71
     2
 72
     2
 73
     0
 90
        0
 40
-0.6
 41
-30.0
 62
     5
 63
     7
421
 16777215
 74
     1
 91
        4
 64
     7
 65
   257
 75
     1
175
     1
 42
1.0
 92
       12
 66
     7
 43
1.0
 76
     1
 77
     6
 78
     2
 67
     7
 79
     5
170
     0
171
     0
290
     0
174
     0
 93
        1
 44
0.0
173
     0
291
     1
 45
0.0
  0
DICTIONARYVAR
  5
30AF
102
{ACAD_REACTORS
330
7D
102
}
330
7D
100
DictionaryVariables
280
     0
  1
1:1
  0
DICTIONARYVAR
  5
30AD
102
{ACAD_REACTORS
330
7D
102
}
330
7D
100
DictionaryVariables
280
     0
  1
STANDARD
  0
DICTIONARYVAR
  5
27CA
102
{ACAD_REACTORS
330
7D
102
}
330
7D
100
DictionaryVariables
280
     0
  1
STANDARD
  0
DICTIONARYVAR
  5
1B82
102
{ACAD_REACTORS
330
7D
102
}
330
7D
100
DictionaryVariables
280
     0
  1
1
  0
DICTIONARYVAR
  5
7E
102
{ACAD_REACTORS
330
7D
102
}
330
7D
100
DictionaryVariables
280
     0
  1
1
  0
DICTIONARYVAR
  5
30B0
102
{ACAD_REACTORS
330
7D
102
}
330
7D
100
DictionaryVariables
280
     0
  1
0
  0
DICTIONARYVAR
  5
30AE
102
{ACAD_REACTORS
330
7D
102
}
330
7D
100
DictionaryVariables
280
     0
  1
0
  0
DICTIONARYVAR
  5
1332
102
{ACAD_REACTORS
330
7D
102
}
330
7D
100
DictionaryVariables
280
     0
  1
96
  0
DICTIONARY
  5
225B
102
{ACAD_REACTORS
330
AF
102
}
330
AF
100
AcDbDictionary
281
     1
  0
XRECORD
  5
27C1
102
{ACAD_REACTORS
330
AF
102
}
330
AF
100
AcDbXrecord
280
     1
 90
-1023410169
  0
XRECORD
  5
30AC
102
{ACAD_REACTORS
330
30AB
102
}
330
30AB
100
AcDbXrecord
280
     1
  0
DICTIONARY
  5
30B1
330
27A0
100
AcDbDictionary
280
     1
281
     1
  3
ACAD_ROUNDTRIP_2008_TABLESTYLE_CELLSTYLEMAP
360
30B2
  0
CELLSTYLEMAP
  5
30B2
102
{ACAD_REACTORS
330
30B1
102
}
330
30B1
100
AcDbCellStyleMap
 90
        3
300
CELLSTYLE
  1
TABLEFORMAT_BEGIN
 90
        5
170
     1
 91
        0
 92
    32768
 62
   257
 93
        1
300
CONTENTFORMAT
  1
CONTENTFORMAT_BEGIN
 90
        0
 91
        0
 92
        4
 93
        0
300

 40
0.0
140
1.0
 94
        5
 62
     0
340
D
144
0.25
309
CONTENTFORMAT_END
171
     0
 94
        6
 95
        1
302
GRIDFORMAT
  1
GRIDFORMAT_BEGIN
 90
        0
 91
        1
 62
     0
 92
       -2
340
0
 93
        0
 40
0.045
309
GRIDFORMAT_END
 95
        2
302
GRIDFORMAT
  1
GRIDFORMAT_BEGIN
 90
        0
 91
        1
 62
     0
 92
       -2
340
0
 93
        0
 40
0.045
309
GRIDFORMAT_END
 95
        4
302
GRIDFORMAT
  1
GRIDFORMAT_BEGIN
 90
        0
 91
        1
 62
     0
 92
       -2
340
0
 93
        0
 40
0.045
309
GRIDFORMAT_END
 95
        8
302
GRIDFORMAT
  1
GRIDFORMAT_BEGIN
 90
        0
 91
        1
 62
     0
 92
       -2
340
0
 93
        0
 40
0.045
309
GRIDFORMAT_END
 95
       16
302
GRIDFORMAT
  1
GRIDFORMAT_BEGIN
 90
        0
 91
        1
 62
     0
 92
       -2
340
0
 93
        0
 40
0.045
309
GRIDFORMAT_END
 95
       32
302
GRIDFORMAT
  1
GRIDFORMAT_BEGIN
 90
        0
 91
        1
 62
     0
 92
       -2
340
0
 93
        0
 40
0.045
309
GRIDFORMAT_END
309
TABLEFORMAT_END
  1
CELLSTYLE_BEGIN
 90
        1
 91
        1
300
_TITLE
309
CELLSTYLE_END
300
CELLSTYLE
  1
TABLEFORMAT_BEGIN
 90
        5
170
     1
 91
        0
 92
        0
 62
   257
 93
        1
300
CONTENTFORMAT
  1
CONTENTFORMAT_BEGIN
 90
        0
 91
        0
 92
        4
 93
        0
300

 40
0.0
140
1.0
 94
        5
 62
     0
340
D
144
0.18
309
CONTENTFORMAT_END
171
     0
 94
        6
 95
        1
302
GRIDFORMAT
  1
GRIDFORMAT_BEGIN
 90
        0
 91
        1
 62
     0
 92
       -2
340
0
 93
        0
 40
0.045
309
GRIDFORMAT_END
 95
        2
302
GRIDFORMAT
  1
GRIDFORMAT_BEGIN
 90
        0
 91
        1
 62
     0
 92
       -2
340
0
 93
        0
 40
0.045
309
GRIDFORMAT_END
 95
        4
302
GRIDFORMAT
  1
GRIDFORMAT_BEGIN
 90
        0
 91
        1
 62
     0
 92
       -2
340
0
 93
        0
 40
0.045
309
GRIDFORMAT_END
 95
        8
302
GRIDFORMAT
  1
GRIDFORMAT_BEGIN
 90
        0
 91
        1
 62
     0
 92
       -2
340
0
 93
        0
 40
0.045
309
GRIDFORMAT_END
 95
       16
302
GRIDFORMAT
  1
GRIDFORMAT_BEGIN
 90
        0
 91
        1
 62
     0
 92
       -2
340
0
 93
        0
 40
0.045
309
GRIDFORMAT_END
 95
       32
302
GRIDFORMAT
  1
GRIDFORMAT_BEGIN
 90
        0
 91
        1
 62
     0
 92
       -2
340
0
 93
        0
 40
0.045
309
GRIDFORMAT_END
309
TABLEFORMAT_END
  1
CELLSTYLE_BEGIN
 90
        2
 91
        1
300
_HEADER
309
CELLSTYLE_END
300
CELLSTYLE
  1
TABLEFORMAT_BEGIN
 90
        5
170
     1
 91
        0
 92
        0
 62
   257
 93
        1
300
CONTENTFORMAT
  1
CONTENTFORMAT_BEGIN
 90
        0
 91
        0
 92
        4
 93
        0
300

 40
0.0
140
1.0
 94
        2
 62
     0
340
D
144
0.18
309
CONTENTFORMAT_END
171
     0
 94
        6
 95
        1
302
GRIDFORMAT
  1
GRIDFORMAT_BEGIN
 90
        0
 91
        1
 62
     0
 92
       -2
340
0
 93
        0
 40
0.045
309
GRIDFORMAT_END
 95
        2
302
GRIDFORMAT
  1
GRIDFORMAT_BEGIN
 90
        0
 91
        1
 62
     0
 92
       -2
340
0
 93
        0
 40
0.045
309
GRIDFORMAT_END
 95
        4
302
GRIDFORMAT
  1
GRIDFORMAT_BEGIN
 90
        0
 91
        1
 62
     0
 92
       -2
340
0
 93
        0
 40
0.045
309
GRIDFORMAT_END
 95
        8
302
GRIDFORMAT
  1
GRIDFORMAT_BEGIN
 90
        0
 91
        1
 62
     0
 92
       -2
340
0
 93
        0
 40
0.045
309
GRIDFORMAT_END
 95
       16
302
GRIDFORMAT
  1
GRIDFORMAT_BEGIN
 90
        0
 91
        1
 62
     0
 92
       -2
340
0
 93
        0
 40
0.045
309
GRIDFORMAT_END
 95
       32
302
GRIDFORMAT
  1
GRIDFORMAT_BEGIN
 90
        0
 91
        1
 62
     0
 92
       -2
340
0
 93
        0
 40
0.045
309
GRIDFORMAT_END
309
TABLEFORMAT_END
  1
CELLSTYLE_BEGIN
 90
        3
 91
        2
300
_DATA
309
CELLSTYLE_END
  0
ENDSEC
  0
EOF
