  0
SECTION
  2
HEADER
  9
$ACADVER
  1
AC1018
  9
$ACADMAINTVER
 70
   104
  9
$DWGCODEPAGE
  3
ANSI_1252
  9
$AUTHOR
  1
rmorof
  9
$LASTSAVEDBY
  1
basyouni
  9
$CUSTOMPROPERTYTAG
  1
Manager
  9
$CUSTOMPROPERTY
  1

  9
$CUSTOMPROPERTYTAG
  1
Firma
  9
$CUSTOMPROPERTY
  1

  9
$CUSTOMPROPERTYTAG
  1
Kategorie
  9
$CUSTOMPROPERTY
  1

  9
$CUSTOMPROPERTYTAG
  1
Bauteilnummer
  9
$CUSTOMPROPERTY
  1
EBM 3500 B_60009247
  9
$CUSTOMPROPERTYTAG
  1
Bezeichnung
  9
$CUSTOMPROPERTY
  1

  9
$CUSTOMPROPERTYTAG
  1
Projekt
  9
$CUSTOMPROPERTY
  1

  9
$CUSTOMPROPERTYTAG
  1
Konstrukteur
  9
$CUSTOMPROPERTY
  1
rmorof
  9
$CUSTOMPROPERTYTAG
  1
Ingenieur
  9
$CUSTOMPROPERTY
  1

  9
$CUSTOMPROPERTYTAG
  1
Bevollmächtigter
  9
$CUSTOMPROPERTY
  1

  9
$CUSTOMPROPERTYTAG
  1
Kostenstelle
  9
$CUSTOMPROPERTY
  1

  9
$CUSTOMPROPERTYTAG
  1
Zulieferer
  9
$CUSTOMPROPERTY
  1

  9
$CUSTOMPROPERTYTAG
  1
Benutzerstatus
  9
$CUSTOMPROPERTY
  1

  9
$CUSTOMPROPERTYTAG
  1
Konstruktionsstatus
  9
$CUSTOMPROPERTY
  1
InBearbeitung
  9
$CUSTOMPROPERTYTAG
  1
Kontrolliert von
  9
$CUSTOMPROPERTY
  1

  9
$CUSTOMPROPERTYTAG
  1
Konstruktion genehmigt von
  9
$CUSTOMPROPERTY
  1

  9
$CUSTOMPROPERTYTAG
  1
Fertigung genehmigt von
  9
$CUSTOMPROPERTY
  1

  9
$CUSTOMPROPERTYTAG
  1
bez. engl.
  9
$CUSTOMPROPERTY
  1

  9
$CUSTOMPROPERTYTAG
  1
bez. franz.
  9
$CUSTOMPROPERTY
  1

  9
$INSBASE
 10
0.0
 20
0.0
 30
0.0
  9
$EXTMIN
 10
59.06136740332197
 20
91.74708019924
 30
0.0
  9
$EXTMAX
 10
252.9998177532476
 20
122.74708019924
 30
0.0
  9
$LIMMIN
 10
0.0
 20
0.0
  9
$LIMMAX
 10
297.0
 20
210.0
  9
$ORTHOMODE
 70
     0
  9
$REGENMODE
 70
     1
  9
$FILLMODE
 70
     1
  9
$QTEXTMODE
 70
     0
  9
$MIRRTEXT
 70
     0
  9
$LTSCALE
 40
1.0
  9
$ATTMODE
 70
     1
  9
$TEXTSIZE
 40
0.2
  9
$TRACEWID
 40
0.05
  9
$TEXTSTYLE
  7
Standard
  9
$CLAYER
  8
0
  9
$CELTYPE
  6
ByLayer
  9
$CECOLOR
 62
   256
  9
$CELTSCALE
 40
1.0
  9
$DISPSILH
 70
     0
  9
$DIMSCALE
 40
1.0
  9
$DIMASZ
 40
1.799999999999999
  9
$DIMEXO
 40
0.0625
  9
$DIMDLI
 40
0.38
  9
$DIMRND
 40
0.0
  9
$DIMDLE
 40
0.0
  9
$DIMEXE
 40
0.18
  9
$DIMTP
 40
0.0
  9
$DIMTM
 40
0.0
  9
$DIMTXT
 40
0.3499999940395355
  9
$DIMCEN
 40
0.09
  9
$DIMTSZ
 40
0.0
  9
$DIMTOL
 70
     0
  9
$DIMLIM
 70
     0
  9
$DIMTIH
 70
     1
  9
$DIMTOH
 70
     1
  9
$DIMSE1
 70
     0
  9
$DIMSE2
 70
     0
  9
$DIMTAD
 70
     0
  9
$DIMZIN
 70
     0
  9
$DIMBLK
  1

  9
$DIMASO
 70
     1
  9
$DIMSHO
 70
     1
  9
$DIMPOST
  1

  9
$DIMAPOST
  1

  9
$DIMALT
 70
     0
  9
$DIMALTD
 70
     2
  9
$DIMALTF
 40
25.4
  9
$DIMLFAC
 40
1.0
  9
$DIMTOFL
 70
     0
  9
$DIMTVP
 40
0.0
  9
$DIMTIX
 70
     0
  9
$DIMSOXD
 70
     0
  9
$DIMSAH
 70
     0
  9
$DIMBLK1
  1

  9
$DIMBLK2
  1

  9
$DIMSTYLE
  2
Standard
  9
$DIMCLRD
 70
     0
  9
$DIMCLRE
 70
     0
  9
$DIMCLRT
 70
     0
  9
$DIMTFAC
 40
1.0
  9
$DIMGAP
 40
0.09
  9
$DIMJUST
 70
     0
  9
$DIMSD1
 70
     0
  9
$DIMSD2
 70
     0
  9
$DIMTOLJ
 70
     1
  9
$DIMTZIN
 70
     0
  9
$DIMALTZ
 70
     0
  9
$DIMALTTZ
 70
     0
  9
$DIMUPT
 70
     0
  9
$DIMDEC
 70
     4
  9
$DIMTDEC
 70
     4
  9
$DIMALTU
 70
     2
  9
$DIMALTTD
 70
     2
  9
$DIMTXSTY
  7
Standard
  9
$DIMAUNIT
 70
     0
  9
$DIMADEC
 70
     0
  9
$DIMALTRND
 40
0.0
  9
$DIMAZIN
 70
     0
  9
$DIMDSEP
 70
    46
  9
$DIMATFIT
 70
     3
  9
$DIMFRAC
 70
     0
  9
$DIMLDRBLK
  1

  9
$DIMLUNIT
 70
     2
  9
$DIMLWD
 70
    -2
  9
$DIMLWE
 70
    -2
  9
$DIMTMOVE
 70
     0
  9
$LUNITS
 70
     2
  9
$LUPREC
 70
     2
  9
$SKETCHINC
 40
0.1
  9
$FILLETRAD
 40
0.0
  9
$AUNITS
 70
     0
  9
$AUPREC
 70
     0
  9
$MENU
  1
.
  9
$ELEVATION
 40
0.0
  9
$PELEVATION
 40
0.0
  9
$THICKNESS
 40
0.0
  9
$LIMCHECK
 70
     0
  9
$CHAMFERA
 40
0.0
  9
$CHAMFERB
 40
0.0
  9
$CHAMFERC
 40
0.0
  9
$CHAMFERD
 40
0.0
  9
$SKPOLY
 70
     0
  9
$TDCREATE
 40
2454638.444509213
  9
$TDUCREATE
 40
2454638.361175880
  9
$TDUPDATE
 40
2454638.595214734
  9
$TDUUPDATE
 40
2454638.511881400
  9
$TDINDWG
 40
0.0052086574
  9
$TDUSRTIMER
 40
0.0052086574
  9
$USRTIMER
 70
     1
  9
$ANGBASE
 50
0.0
  9
$ANGDIR
 70
     0
  9
$PDMODE
 70
     0
  9
$PDSIZE
 40
0.0
  9
$PLINEWID
 40
0.0
  9
$SPLFRAME
 70
     0
  9
$SPLINETYPE
 70
     6
  9
$SPLINESEGS
 70
     8
  9
$HANDSEED
  5
EE9
  9
$SURFTAB1
 70
     6
  9
$SURFTAB2
 70
     6
  9
$SURFTYPE
 70
     6
  9
$SURFU
 70
     6
  9
$SURFV
 70
     6
  9
$UCSBASE
  2

  9
$UCSNAME
  2

  9
$UCSORG
 10
0.0
 20
0.0
 30
0.0
  9
$UCSXDIR
 10
1.0
 20
0.0
 30
0.0
  9
$UCSYDIR
 10
0.0
 20
1.0
 30
0.0
  9
$UCSORTHOREF
  2

  9
$UCSORTHOVIEW
 70
     0
  9
$UCSORGTOP
 10
0.0
 20
0.0
 30
0.0
  9
$UCSORGBOTTOM
 10
0.0
 20
0.0
 30
0.0
  9
$UCSORGLEFT
 10
0.0
 20
0.0
 30
0.0
  9
$UCSORGRIGHT
 10
0.0
 20
0.0
 30
0.0
  9
$UCSORGFRONT
 10
0.0
 20
0.0
 30
0.0
  9
$UCSORGBACK
 10
0.0
 20
0.0
 30
0.0
  9
$PUCSBASE
  2

  9
$PUCSNAME
  2

  9
$PUCSORG
 10
0.0
 20
0.0
 30
0.0
  9
$PUCSXDIR
 10
1.0
 20
0.0
 30
0.0
  9
$PUCSYDIR
 10
0.0
 20
1.0
 30
0.0
  9
$PUCSORTHOREF
  2

  9
$PUCSORTHOVIEW
 70
     0
  9
$PUCSORGTOP
 10
0.0
 20
0.0
 30
0.0
  9
$PUCSORGBOTTOM
 10
0.0
 20
0.0
 30
0.0
  9
$PUCSORGLEFT
 10
0.0
 20
0.0
 30
0.0
  9
$PUCSORGRIGHT
 10
0.0
 20
0.0
 30
0.0
  9
$PUCSORGFRONT
 10
0.0
 20
0.0
 30
0.0
  9
$PUCSORGBACK
 10
0.0
 20
0.0
 30
0.0
  9
$USERI1
 70
     0
  9
$USERI2
 70
     0
  9
$USERI3
 70
     0
  9
$USERI4
 70
     0
  9
$USERI5
 70
     0
  9
$USERR1
 40
0.0
  9
$USERR2
 40
0.0
  9
$USERR3
 40
0.0
  9
$USERR4
 40
0.0
  9
$USERR5
 40
0.0
  9
$WORLDVIEW
 70
     1
  9
$SHADEDGE
 70
     3
  9
$SHADEDIF
 70
    70
  9
$TILEMODE
 70
     1
  9
$MAXACTVP
 70
    64
  9
$PINSBASE
 10
0.0
 20
0.0
 30
0.0
  9
$PLIMCHECK
 70
     0
  9
$PEXTMIN
 10
0.0
 20
0.0
 30
0.0
  9
$PEXTMAX
 10
297.0
 20
210.0
 30
0.0
  9
$PLIMMIN
 10
0.0
 20
0.0
  9
$PLIMMAX
 10
297.0
 20
210.0
  9
$UNITMODE
 70
     0
  9
$VISRETAIN
 70
     1
  9
$PLINEGEN
 70
     0
  9
$PSLTSCALE
 70
     1
  9
$TREEDEPTH
 70
  3020
  9
$CMLSTYLE
  2
Standard
  9
$CMLJUST
 70
     0
  9
$CMLSCALE
 40
1.0
  9
$PROXYGRAPHICS
 70
     1
  9
$MEASUREMENT
 70
     1
  9
$CELWEIGHT
370
    -1
  9
$ENDCAPS
280
     0
  9
$JOINSTYLE
280
     0
  9
$LWDISPLAY
290
     0
  9
$INSUNITS
 70
     4
  9
$HYPERLINKBASE
  1

  9
$STYLESHEET
  1

  9
$XEDIT
290
     1
  9
$CEPSNTYPE
380
     0
  9
$PSTYLEMODE
290
     1
  9
$FINGERPRINTGUID
  2
{F589EB82-E262-4DB1-BDC9-3F0925F392C9}
  9
$VERSIONGUID
  2
{2038942A-2337-42F2-8D00-8C275CAEE994}
  9
$EXTNAMES
290
     1
  9
$PSVPSCALE
 40
0.0
  9
$OLESTARTUP
290
     0
  9
$SORTENTS
280
   127
  9
$INDEXCTL
280
     0
  9
$HIDETEXT
280
     1
  9
$XCLIPFRAME
290
     0
  9
$HALOGAP
280
     0
  9
$OBSCOLOR
 70
   257
  9
$OBSLTYPE
280
     0
  9
$INTERSECTIONDISPLAY
280
     0
  9
$INTERSECTIONCOLOR
 70
   257
  9
$DIMASSOC
280
     1
  9
$PROJECTNAME
  1

  0
ENDSEC
  0
SECTION
  2
CLASSES
  0
CLASS
  1
ACDBDICTIONARYWDFLT
  2
AcDbDictionaryWithDefault
  3
ObjectDBX Classes
 90
        0
 91
        1
280
     0
281
     0
  0
CLASS
  1
MATERIAL
  2
AcDbMaterial
  3
ObjectDBX Classes
 90
     1153
 91
        3
280
     0
281
     0
  0
CLASS
  1
VISUALSTYLE
  2
AcDbVisualStyle
  3
ObjectDBX Classes
 90
     4095
 91
       16
280
     0
281
     0
  0
CLASS
  1
SCALE
  2
AcDbScale
  3
ObjectDBX Classes
 90
     1153
 91
       33
280
     0
281
     0
  0
CLASS
  1
TABLESTYLE
  2
AcDbTableStyle
  3
ObjectDBX Classes
 90
     4095
 91
        1
280
     0
281
     0
  0
CLASS
  1
MLEADERSTYLE
  2
AcDbMLeaderStyle
  3
ACDB_MLEADERSTYLE_CLASS
 90
     4095
 91
        1
280
     0
281
     0
  0
CLASS
  1
DICTIONARYVAR
  2
AcDbDictionaryVar
  3
ObjectDBX Classes
 90
        0
 91
        5
280
     0
281
     0
  0
CLASS
  1
CELLSTYLEMAP
  2
AcDbCellStyleMap
  3
ObjectDBX Classes
 90
     1152
 91
        1
280
     0
281
     0
  0
CLASS
  1
AMGSETTINGSOBJ
  2
AmgSettingsObj
  3
"AcadM|Product Description: AutoCAD Mechanical|Company: Autodesk"
 90
        0
 91
        2
280
     0
281
     0
  0
CLASS
  1
ACME_DOCUMENT
  2
AcMeDbDoc
  3
AcMeServices
 90
        0
 91
        1
280
     0
281
     0
  0
CLASS
  1
ACMESCOPE
  2
AcMeScope
  3
AcMeServices
 90
        0
 91
        1
280
     0
281
     0
  0
CLASS
  1
ACMECOMMANDHISTORY
  2
AcMeCommandHistory
  3
AcMeServices
 90
        0
 91
        1
280
     0
281
     0
  0
CLASS
  1
ACIMSYSVARMAN
  2
AcImSysVarManager
  3
AcMeServices
 90
        0
 91
        5
280
     0
281
     0
  0
CLASS
  1
ACIMINTSYSVAR
  2
AcImIntSysVar
  3
AcMeServices
 90
        0
 91
       27
280
     0
281
     0
  0
CLASS
  1
ACMEDRAWINGMAN
  2
AcMeDrawingMan
  3
AcMeServices
 90
        0
 91
        1
280
     0
281
     0
  0
CLASS
  1
ACMEVIEW
  2
AcMeView
  3
AcMeServices
 90
        0
 91
        1
280
     0
281
     0
  0
CLASS
  1
ACDBENTITYCACHE
  2
AcMeEntityCache
  3
AcMeServices
 90
        0
 91
        1
280
     0
281
     0
  0
CLASS
  1
GSMANAGER
  2
AcMeGSManager
  3
AcMeServices
 90
        0
 91
        1
280
     0
281
     0
  0
CLASS
  1
AMDTINTERNALREACTOR
  2
AmdtInternalReactor
  3
AcMeServices
 90
        0
 91
        2
280
     0
281
     0
  0
CLASS
  1
ACMESTATEMGR
  2
AcMeStateMgr
  3
AcMeServices
 90
        0
 91
        1
280
     0
281
     0
  0
CLASS
  1
ACGREFMASTER
  2
AcGrefMaster
  3
AcAttribServices
 90
        0
 91
        1
280
     0
281
     0
  0
CLASS
  1
AM_DRAWING_MGR
  2
AcDmDwgMgr
  3
AcMechDwgViewMgmt
 90
        0
 91
        1
280
     0
281
     0
  0
CLASS
  1
AM_DWG_DOCUMENT
  2
AcDmDwgDocument
  3
AcMechDwgViewMgmt
 90
        0
 91
        1
280
     0
281
     0
  0
CLASS
  1
AM_DWG_SHEET
  2
AcDmSheet
  3
AcMechDwgViewMgmt
 90
        0
 91
        2
280
     0
281
     0
  0
CLASS
  1
AM_VIEWDIMPARMAP
  2
AcDmViewDimParMap
  3
AcMechDwgViewMgmt
 90
        0
 91
        2
280
     0
281
     0
  0
CLASS
  1
ACIMREALSYSVAR
  2
AcImRealSysVar
  3
AcMeServices
 90
        0
 91
        1
280
     0
281
     0
  0
CLASS
  1
AM_DWGMGR_NAME
  2
AcDmDwgMgrName
  3
AcMechDwgViewMgmt
 90
        0
 91
        1
280
     0
281
     0
  0
CLASS
  1
ACME_DATABASE
  2
AcMeDbDatabase
  3
AcMeServices
 90
        0
 91
        1
280
     0
281
     0
  0
CLASS
  1
ACRFINSADJUSTERMGR
  2
AcRfInsAdjusterMgr
  3
AcMeServices
 90
        0
 91
        1
280
     0
281
     0
  0
CLASS
  1
ACGREFACADMASTER
  2
AcGrefacadMaster
  3
AcGrefServices
 90
        0
 91
        1
280
     0
281
     0
  0
CLASS
  1
AMDTMENUSTATEMGR
  2
AmdtMenuStateMgr
  3
McadcomServices
 90
        0
 91
        1
280
     0
281
     0
  0
CLASS
  1
AMDTMCOMMENUSTATE
  2
AmdtMcomMenuState
  3
McadcomServices
 90
        0
 91
        1
280
     0
281
     0
  0
CLASS
  1
AMIMASTER
  2
AmiMaster
  3
AmiServices
 90
        0
 91
        1
280
     0
281
     0
  0
CLASS
  1
MAPIAMMOUDLE
  2
MApiAmModule
  3
MApiAmServices
 90
        0
 91
        1
280
     0
281
     0
  0
CLASS
  1
ACIMSTRSYSVAR
  2
AcImStrSysVar
  3
AcMeServices
 90
        0
 91
        5
280
     0
281
     0
  0
CLASS
  1
AMDTADMENUSTATE
  2
AmdtAdMenuState
  3
DesignerServices
 90
        0
 91
        1
280
     0
281
     0
  0
CLASS
  1
ADAPPL
  2
AcAdAppl
  3
DesignerServices
 90
        0
 91
        1
280
     0
281
     0
  0
CLASS
  1
DEPMGR
  2
AcAdDepMgr
  3
DesignerServices
 90
        0
 91
        1
280
     0
281
     0
  0
CLASS
  1
PARAMMGR
  2
AcAdParamMgr
  3
DesignerServices
 90
        0
 91
        1
280
     0
281
     0
  0
CLASS
  1
PARAMSCOPE
  2
AcAdParamScope
  3
DesignerServices
 90
        0
 91
        1
280
     0
281
     0
  0
CLASS
  1
NAMEDAPPL
  2
AcAdNamedAppl
  3
DesignerServices
 90
        0
 91
        1
280
     0
281
     0
  0
CLASS
  1
AMDTDMMENUSTATE
  2
AmdtDmMenuState
  3
AcMechDwgViewMgmt
 90
        0
 91
        1
280
     0
281
     0
  0
CLASS
  1
AMDTAMMENUSTATE
  2
AmdtAmMenuState
  3
DesignerAssemblies
 90
        0
 91
        1
280
     0
281
     0
  0
CLASS
  1
ACAMPROJECT
  2
AcAmProject
  3
DesignerAssemblies
 90
        0
 91
        1
280
     0
281
     0
  0
CLASS
  1
ACAMGRCOMPDEF
  2
AcAmGrCompDef
  3
DesignerAssemblies
 90
        0
 91
        1
280
     0
281
     0
  0
CLASS
  1
ACCMCONTEXT
  2
AcCmContext
  3
DesignerAssemblies
 90
        0
 91
        1
280
     0
281
     0
  0
CLASS
  1
ACAMCOMPDEF
  2
AcAmCompDef
  3
DesignerAssemblies
 90
        0
 91
        1
280
     0
281
     0
  0
CLASS
  1
ACAMCOMPDEFMGR
  2
AcAmCompDefMgr
  3
DesignerAssemblies
 90
        0
 91
        1
280
     0
281
     0
  0
CLASS
  1
AMCONTEXTMGR
  2
AcAmContextMgr
  3
DesignerAssemblies
 90
        0
 91
        1
280
     0
281
     0
  0
CLASS
  1
ACAMCONTEXTMODELER
  2
AcAmContextModeler
  3
DesignerAssemblies
 90
        0
 91
        1
280
     0
281
     0
  0
CLASS
  1
ACMDATADICTIONARY
  2
AcmDataDictionary
  3
"AcmSymBB|Product Description: AutoCAD Mechanical|Company: Autodesk"
 90
        0
 91
        1
280
     0
281
     0
  0
CLASS
  1
CATALOGSTATE
  2
AcAmCatalogState
  3
DesignerAssemblies
 90
        0
 91
        1
280
     0
281
     0
  0
CLASS
  1
ACAMGRCOMPDEFSET
  2
AcAmGrCompDefSet
  3
DesignerAssemblies
 90
        0
 91
        1
280
     0
281
     0
  0
CLASS
  1
AMDTBROWSERDBTAB
  2
AmdtBrowserDbTab
  3
McadcomServices
 90
        0
 91
        1
280
     0
281
     0
  0
CLASS
  1
CBROWSERAPPOBJECT
  2
CBrowserAppObject
  3
McadcomServices
 90
        0
 91
        3
280
     0
281
     0
  0
CLASS
  1
DM_PLACEHOLDER
  2
AcDmSelsetPlaceholder
  3
AcMechDwgViewMgmt
 90
        0
 91
        1
280
     0
281
     0
  0
CLASS
  1
ACMSTANDARDDIN
  2
AcmStandardDIN
  3
"Amdt_StdImp|Product Description: AutoCAD Mechanical|Company: Autodesk"
 90
        0
 91
        1
280
     0
281
     0
  0
CLASS
  1
AMGOBJPROPCFG
  2
AmgObjPropCfg
  3
"AmgLay|Product Description: AutoCAD Mechanical|Company: Autodesk"
 90
        1
 91
        1
280
     0
281
     0
  0
CLASS
  1
AMDTEDGESTANDARDDIN13715
  2
AmdtEdgeStdDIN13715
  3
"Amdt_StdImp|Product Description: AutoCAD Mechanical|Company: Autodesk"
 90
        0
 91
        1
280
     0
281
     0
  0
CLASS
  1
ACMSURFSTANDARDDIN
  2
AcmSurfTextStdDIN
  3
"Amdt_StdImp|Product Description: AutoCAD Mechanical|Company: Autodesk"
 90
        0
 91
        1
280
     0
281
     0
  0
CLASS
  1
ACMFCFSTANDARDDIN
  2
AcmFCFStdDIN
  3
"Amdt_StdImp|Product Description: AutoCAD Mechanical|Company: Autodesk"
 90
        0
 91
        1
280
     0
281
     0
  0
CLASS
  1
ACMWELDSTANDARDDIN
  2
AcmWeldingStdDIN
  3
"Amdt_StdImp|Product Description: AutoCAD Mechanical|Company: Autodesk"
 90
        0
 91
        1
280
     0
281
     0
  0
CLASS
  1
ACMIDSTANDARDDIN
  2
AcmIdStdDIN
  3
"Amdt_StdImp|Product Description: AutoCAD Mechanical|Company: Autodesk"
 90
        0
 91
        1
280
     0
281
     0
  0
CLASS
  1
ACMDATUMSTANDARDDIN
  2
AcmDatumStdDIN
  3
"Amdt_StdImp|Product Description: AutoCAD Mechanical|Company: Autodesk"
 90
        0
 91
        1
280
     0
281
     0
  0
CLASS
  1
ACMBOMSTANDARDDIN
  2
AcmBOMStdDIN
  3
"Amdt_StdImp|Product Description: AutoCAD Mechanical|Company: Autodesk"
 90
        0
 91
        1
280
     0
281
     0
  0
CLASS
  1
ACMDETAILSTANDARDDIN
  2
AmdtDetailSymStdDIN
  3
"Amdt_StdImp|Product Description: AutoCAD Mechanical|Company: Autodesk"
 90
        0
 91
        1
280
     0
281
     0
  0
CLASS
  1
ACMSECTIONSTANDARDDIN
  2
AmdtSectionSymStdDIN
  3
"Amdt_StdImp|Product Description: AutoCAD Mechanical|Company: Autodesk"
 90
        0
 91
        1
280
     0
281
     0
  0
CLASS
  1
ACMCENTERLINESTANDARDDIN
  2
AmdtCenterLineStdDIN
  3
"Amdt_StdImp|Product Description: AutoCAD Mechanical|Company: Autodesk"
 90
        0
 91
        1
280
     0
281
     0
  0
CLASS
  1
ACMTHREADLINESTANDARDDIN
  2
AmdtThreadLineStdDIN
  3
"Amdt_StdImp|Product Description: AutoCAD Mechanical|Company: Autodesk"
 90
        0
 91
        1
280
     0
281
     0
  0
CLASS
  1
ACMNOTESTANDARDDIN
  2
AmdtNoteStdDIN
  3
"Amdt_StdImp|Product Description: AutoCAD Mechanical|Company: Autodesk"
 90
        0
 91
        1
280
     0
281
     0
  0
CLASS
  1
ACMTAPERSTANDARDDIN
  2
AcmTaperStdDIN
  3
"Amdt_StdImp|Product Description: AutoCAD Mechanical|Company: Autodesk"
 90
        0
 91
        1
280
     0
281
     0
  0
CLASS
  1
AMDTNOTETEMPLATEDB
  2
AmdtNoteTemplateDB
  3
AMDT_STDIMP_MODULE_NAME
 90
        0
 91
        6
280
     0
281
     0
  0
CLASS
  1
ACAMGLAYSTD
  2
AcAmgLayStd
  3
"AmgLay|Product Description: AutoCAD Mechanical|Company: Autodesk"
 90
        0
 91
        1
280
     0
281
     0
  0
CLASS
  1
ACAMGDIMSTD
  2
AcAmgDimStd
  3
"AmgDim|Product Description: AutoCAD Mechanical|Company: Autodesk"
 90
        0
 91
        1
280
     0
281
     0
  0
CLASS
  1
ACAMGHOLECHARTSTDDIN
  2
AcAmgHoleChartStdDIN
  3
ACMSYMBB_MODULE_NAME
 90
        0
 91
        1
280
     0
281
     0
  0
CLASS
  1
ACAMGTITLESTD
  2
AcAmgTitleStd
  3
"AmgTitle|Product Description: AutoCAD Mechanical|Company: Autodesk"
 90
        0
 91
        1
280
     0
281
     0
  0
CLASS
  1
ACAMGFILTERDAT
  2
AcAmgFilterDat
  3
"AcadM|Product Description: AutoCAD Mechanical|Company: Autodesk"
 90
        0
 91
        0
280
     0
281
     0
  0
CLASS
  1
ACMSTANDARDANSI
  2
AcmStandardANSI
  3
"Amdt_StdImp|Product Description: AutoCAD Mechanical|Company: Autodesk"
 90
        0
 91
        0
280
     0
281
     0
  0
CLASS
  1
ACMSURFSTANDARDANSI
  2
AcmSurfTextStdANSI
  3
"Amdt_StdImp|Product Description: AutoCAD Mechanical|Company: Autodesk"
 90
        0
 91
        0
280
     0
281
     0
  0
CLASS
  1
ACMFCFSTANDARDANSI
  2
AcmFCFStdANSI
  3
"Amdt_StdImp|Product Description: AutoCAD Mechanical|Company: Autodesk"
 90
        0
 91
        0
280
     0
281
     0
  0
CLASS
  1
ACMWELDSTANDARDANSI
  2
AcmWeldingStdANSI
  3
"Amdt_StdImp|Product Description: AutoCAD Mechanical|Company: Autodesk"
 90
        0
 91
        0
280
     0
281
     0
  0
CLASS
  1
ACMIDSTANDARDANSI
  2
AcmIdStdANSI
  3
"Amdt_StdImp|Product Description: AutoCAD Mechanical|Company: Autodesk"
 90
        0
 91
        0
280
     0
281
     0
  0
CLASS
  1
ACMDATUMSTANDARDANSI
  2
AcmDatumStdANSI
  3
"Amdt_StdImp|Product Description: AutoCAD Mechanical|Company: Autodesk"
 90
        0
 91
        0
280
     0
281
     0
  0
CLASS
  1
ACMBOMSTANDARDANSI
  2
AcmBOMStdANSI
  3
"Amdt_StdImp|Product Description: AutoCAD Mechanical|Company: Autodesk"
 90
        0
 91
        0
280
     0
281
     0
  0
CLASS
  1
ACMDETAILSTANDARDANSI
  2
AmdtDetailSymStdANSI
  3
"Amdt_StdImp|Product Description: AutoCAD Mechanical|Company: Autodesk"
 90
        0
 91
        0
280
     0
281
     0
  0
CLASS
  1
ACMSECTIONSTANDARDANSI
  2
AmdtSectionSymStdANSI
  3
"Amdt_StdImp|Product Description: AutoCAD Mechanical|Company: Autodesk"
 90
        0
 91
        0
280
     0
281
     0
  0
CLASS
  1
ACMCENTERLINESTANDARDANSI
  2
AmdtCenterLineStdANSI
  3
"Amdt_StdImp|Product Description: AutoCAD Mechanical|Company: Autodesk"
 90
        0
 91
        0
280
     0
281
     0
  0
CLASS
  1
ACMTHREADLINESTANDARDANSI
  2
AmdtThreadLineStdANSI
  3
"Amdt_StdImp|Product Description: AutoCAD Mechanical|Company: Autodesk"
 90
        0
 91
        0
280
     0
281
     0
  0
CLASS
  1
ACMNOTESTANDARDANSI
  2
AmdtNoteStdANSI
  3
"Amdt_StdImp|Product Description: AutoCAD Mechanical|Company: Autodesk"
 90
        0
 91
        0
280
     0
281
     0
  0
CLASS
  1
ACAMGHOLECHARTSTDANSI
  2
AcAmgHoleChartStdANSI
  3
ACMSYMBB_MODULE_NAME
 90
        0
 91
        0
280
     0
281
     0
  0
CLASS
  1
ACMTAPERSTANDARDANSI
  2
AcmTaperStdANSI
  3
"Amdt_StdImp|Product Description: AutoCAD Mechanical|Company: Autodesk"
 90
        0
 91
        0
280
     0
281
     0
  0
CLASS
  1
ACMDATAENTRYBLOCK
  2
AcmDataEntryBlock
  3
"AcmSymBB|Product Description: AutoCAD Mechanical|Company: Autodesk"
 90
        0
 91
        0
280
     0
281
     0
  0
ENDSEC
  0
SECTION
  2
TABLES
  0
TABLE
  2
VPORT
  5
8
330
0
100
AcDbSymbolTable
 70
     1
  0
VPORT
  5
5F
330
8
100
AcDbSymbolTableRecord
100
AcDbViewportTableRecord
  2
*Active
 70
     0
 10
0.0
 20
0.0
 11
1.0
 21
1.0
 12
182.6895017382907
 22
88.04592495419942
 13
0.0
 23
0.0
 14
1.0
 24
1.0
 15
0.0
 25
0.0
 16
0.0
 26
0.0
 36
1.0
 17
0.0
 27
0.0
 37
0.0
 40
213.5442928149882
 41
1.59214501510574
 42
50.0
 43
0.0
 44
0.0
 50
0.0
 51
0.0
 71
     0
 72
   100
 73
     1
 74
     1
 75
     0
 76
     0
 77
     0
 78
     0
281
     0
 65
     0
110
0.0
120
0.0
130
0.0
111
1.0
121
0.0
131
0.0
112
0.0
122
1.0
132
0.0
 79
     0
146
0.0
  0
ENDTAB
  0
TABLE
  2
LTYPE
  5
5
330
0
100
AcDbSymbolTable
 70
    22
  0
LTYPE
  5
63
330
5
100
AcDbSymbolTableRecord
100
AcDbLinetypeTableRecord
  2
ByBlock
 70
     0
  3

 72
    65
 73
     0
 40
0.0
  0
LTYPE
  5
64
330
5
100
AcDbSymbolTableRecord
100
AcDbLinetypeTableRecord
  2
ByLayer
 70
     0
  3

 72
    65
 73
     0
 40
0.0
  0
LTYPE
  5
65
330
5
100
AcDbSymbolTableRecord
100
AcDbLinetypeTableRecord
  2
Continuous
 70
     0
  3
Solid line
 72
    65
 73
     0
 40
0.0
  0
LTYPE
  5
8F
330
5
100
AcDbSymbolTableRecord
100
AcDbLinetypeTableRecord
  2
CENTER
 70
     0
  3
Center ____ _ ____ _ ____ _ ____ _ ____ _ ____
 72
    65
 73
     4
 40
50.8
 49
31.75
 74
     0
 49
-6.349999999999997
 74
     0
 49
6.349999999999997
 74
     0
 49
-6.349999999999997
 74
     0
  0
LTYPE
  5
9C
330
5
100
AcDbSymbolTableRecord
100
AcDbLinetypeTableRecord
  2
HIDDEN
 70
     0
  3
Hidden __ __ __ __ __ __ __ __ __ __ __ __ __ _
 72
    65
 73
     2
 40
9.524999999999996
 49
6.349999999999997
 74
     0
 49
-3.174999999999998
 74
     0
  0
LTYPE
  5
A0
330
5
100
AcDbSymbolTableRecord
100
AcDbLinetypeTableRecord
  2
PHANTOM2
 70
     0
  3
Phantom (.5x) ___ _ _ ___ _ _ ___ _ _ ___ _ _
 72
    65
 73
     6
 40
31.75
 49
15.875
 74
     0
 49
-3.174999999999998
 74
     0
 49
3.174999999999998
 74
     0
 49
-3.174999999999998
 74
     0
 49
3.174999999999998
 74
     0
 49
-3.174999999999998
 74
     0
  0
LTYPE
  5
DE6
330
5
100
AcDbSymbolTableRecord
100
AcDbLinetypeTableRecord
  2
Amconstr
 70
     0
  3
_______________________
 72
    65
 73
     2
 40
9999.0
 49
9999.0
 74
     0
 49
0.0
 74
     0
  0
LTYPE
  5
DEB
330
5
100
AcDbSymbolTableRecord
100
AcDbLinetypeTableRecord
  2
Amzigzag
 70
     0
  3
/\/-/\/-/\/-/\/-/\/-/\/
 72
    65
 73
     2
 40
11.0001
 49
0.0001
 74
     4
 75
   136
340
DEA
 46
0.04
 50
0.0
 44
0.0
 45
0.0
 49
-11.0
 74
     0
  0
LTYPE
  5
DEC
330
5
100
AcDbSymbolTableRecord
100
AcDbLinetypeTableRecord
  2
AM_DIN_F_W050
 70
     0
  3
__ __ __ __ __ __ __ __ __ __ __ __ __ __ __
 72
    65
 73
     2
 40
6.25
 49
4.75
 74
     0
 49
-1.5
 74
     0
  0
LTYPE
  5
DED
330
5
100
AcDbSymbolTableRecord
100
AcDbLinetypeTableRecord
  2
AM_DIN_G_W050
 70
     0
  3
____ . ____ . ____ . ____ . ____ . ____ . ____
 72
    65
 73
     4
 40
13.75
 49
9.75
 74
     0
 49
-1.5
 74
     0
 49
1.0
 74
     0
 49
-1.5
 74
     0
  0
LTYPE
  5
DEE
330
5
100
AcDbSymbolTableRecord
100
AcDbLinetypeTableRecord
  2
AM_DIN_K_W050
 70
     0
  3
_____ . . _____ . . _____ . . ____ .. ____
 72
    65
 73
     6
 40
16.25
 49
9.75
 74
     0
 49
-1.5
 74
     0
 49
1.0
 74
     0
 49
-1.5
 74
     0
 49
1.0
 74
     0
 49
-1.5
 74
     0
  0
LTYPE
  5
DEF
330
5
100
AcDbSymbolTableRecord
100
AcDbLinetypeTableRecord
  2
AM_DIN_G_W050x2
 70
     0
  3
__ . __ . __ . __ . __ . __
 72
    65
 73
     4
 40
6.875
 49
4.75
 74
     0
 49
-0.875
 74
     0
 49
0.375
 74
     0
 49
-0.875
 74
     0
  0
LTYPE
  5
DF0
330
5
100
AcDbSymbolTableRecord
100
AcDbLinetypeTableRecord
  2
AM_DIN_F_W050x2
 70
     0
  3
 _ _ _ _ _ _ _ _ _ _ _ _
 72
    65
 73
     2
 40
3.125
 49
2.25
 74
     0
 49
-0.875
 74
     0
  0
LTYPE
  5
E00
330
5
100
AcDbSymbolTableRecord
100
AcDbLinetypeTableRecord
  2
ACDINWELD
 70
     0
  3
_ _ _ _ _
 72
    65
 73
     2
 40
2.0
 49
2.0
 74
     0
 49
-1.0
 74
     0
  0
LTYPE
  5
E01
330
5
100
AcDbSymbolTableRecord
100
AcDbLinetypeTableRecord
  2
ACDINTGB
 70
     0
  3
__ . . __ . .
 72
    65
 73
     6
 40
9.0
 49
4.0
 74
     0
 49
-1.0
 74
     0
 49
1.0
 74
     0
 49
-1.0
 74
     0
 49
1.0
 74
     0
 49
-1.0
 74
     0
  0
LTYPE
  5
E02
330
5
100
AcDbSymbolTableRecord
100
AcDbLinetypeTableRecord
  2
ACDINTGL
 70
     0
  3
_ _ _ _ _
 72
    65
 73
     2
 40
3.0
 49
2.0
 74
     0
 49
-1.0
 74
     0
  0
LTYPE
  5
E22
330
5
100
AcDbSymbolTableRecord
100
AcDbLinetypeTableRecord
  2
MITTE
 70
     0
  3
____ _ ____ _ ____ _ ____ _ ____ _ ____ _ ____ 
 72
    65
 73
     4
 40
50.8
 49
31.75
 74
     0
 49
-6.349999999999998
 74
     0
 49
6.349999999999998
 74
     0
 49
-6.349999999999998
 74
     0
  0
ENDTAB
  0
TABLE
  2
LAYER
  5
2
330
0
100
AcDbSymbolTable
 70
     4
  0
LAYER
  5
5C
330
2
100
AcDbSymbolTableRecord
100
AcDbLayerTableRecord
  2
0
 70
     0
 62
     7
  6
Continuous
370
    -3
390
F
  0
LAYER
  5
7C0
330
2
100
AcDbSymbolTableRecord
100
AcDbLayerTableRecord
  2
Defpoints
 70
     0
 62
     7
  6
Continuous
290
     0
370
    -3
390
F
  0
LAYER
  5
E26
330
2
100
AcDbSymbolTableRecord
100
AcDbLayerTableRecord
  2
MITTE
 70
     0
 62
     4
  6
MITTE
370
    -3
390
F
  0
LAYER
  5
E50
330
2
100
AcDbSymbolTableRecord
100
AcDbLayerTableRecord
  2
LINIE
 70
     0
 62
     4
  6
Continuous
370
    -3
390
F
  0
ENDTAB
  0
TABLE
  2
STYLE
  5
3
330
0
100
AcDbSymbolTable
 70
     6
  0
STYLE
  5
5D
330
3
100
AcDbSymbolTableRecord
100
AcDbTextStyleTableRecord
  2
Standard
 70
     0
 40
0.0
 41
1.0
 50
0.0
 71
     0
 42
0.2
  3
isocpeur.ttf
  4

1001
ACAD
1000
ISOCPEUR
1071
      256
  0
STYLE
  5
DEA
330
3
100
AcDbSymbolTableRecord
100
AcDbTextStyleTableRecord
  2

 70
     1
 40
0.0
 41
1.0
 50
0.0
 71
     0
 42
0.2
  3
genltshp.shx
  4

  0
STYLE
  5
DF1
330
3
100
AcDbSymbolTableRecord
100
AcDbTextStyleTableRecord
  2
ACDINTS
 70
     0
 40
1.0
 41
1.0
 50
0.0
 71
     0
 42
0.2
  3
isocp.shx
  4

  0
STYLE
  5
DFF
330
3
100
AcDbSymbolTableRecord
100
AcDbTextStyleTableRecord
  2
ACDINGDT
 70
     0
 40
0.0
 41
1.0
 50
0.0
 71
     0
 42
0.2
  3
amgdt.shx
  4

  0
ENDTAB
  0
TABLE
  2
VIEW
  5
6
330
0
100
AcDbSymbolTable
 70
     0
  0
ENDTAB
  0
TABLE
  2
UCS
  5
7
330
0
100
AcDbSymbolTable
 70
     0
  0
ENDTAB
  0
TABLE
  2
APPID
  5
9
330
0
100
AcDbSymbolTable
 70
    12
  0
APPID
  5
5E
330
9
100
AcDbSymbolTableRecord
100
AcDbRegAppTableRecord
  2
ACAD
 70
     0
  0
APPID
  5
66
330
9
100
AcDbSymbolTableRecord
100
AcDbRegAppTableRecord
  2
AcadAnnotative
 70
     0
  0
APPID
  5
70
330
9
100
AcDbSymbolTableRecord
100
AcDbRegAppTableRecord
  2
ACAD_MLEADERVER
 70
     0
  0
APPID
  5
D80
330
9
100
AcDbSymbolTableRecord
100
AcDbRegAppTableRecord
  2
MCAD_NO_VIS
 70
     0
  0
APPID
  5
D81
330
9
100
AcDbSymbolTableRecord
100
AcDbRegAppTableRecord
  2
ACAD_TEMP_GRAPHIC
 70
     0
  0
APPID
  5
DB0
330
9
100
AcDbSymbolTableRecord
100
AcDbRegAppTableRecord
  2
AD_DRAW
 70
     0
  0
APPID
  5
DB3
330
9
100
AcDbSymbolTableRecord
100
AcDbRegAppTableRecord
  2
ACATTRIBSERVICES
 70
     0
  0
APPID
  5
DD4
330
9
100
AcDbSymbolTableRecord
100
AcDbRegAppTableRecord
  2
DESIGNERASSEMBLIES
 70
     0
  0
APPID
  5
DDA
330
9
100
AcDbSymbolTableRecord
100
AcDbRegAppTableRecord
  2
ACADM_DIM_EDIT
 70
     0
  0
APPID
  5
DDB
330
9
100
AcDbSymbolTableRecord
100
AcDbRegAppTableRecord
  2
AMDT_DM_ADJ
 70
     0
  0
APPID
  5
E2F
330
9
100
AcDbSymbolTableRecord
100
AcDbRegAppTableRecord
  2
ACAD_PSEXT
 70
     0
  0
APPID
  5
E62
330
9
100
AcDbSymbolTableRecord
100
AcDbRegAppTableRecord
  2
ACAD_DSTYLE_DIMJOGGED_JOGANGLE_SYMBOL
 70
     0
  0
ENDTAB
  0
TABLE
  2
DIMSTYLE
  5
A
330
0
100
AcDbSymbolTable
 70
    14
100
AcDbDimStyleTable
 71
     1
340
60
  0
DIMSTYLE
105
60
330
A
100
AcDbSymbolTableRecord
100
AcDbDimStyleTableRecord
  2
Standard
 70
     0
340
5D
  0
DIMSTYLE
105
E0D
330
A
100
AcDbSymbolTableRecord
100
AcDbDimStyleTableRecord
  2
AM_DIN
 70
     0
  4
"
 41
2.5
 42
1.0
 43
10.0
 44
1.0
 47
0.1
 48
0.1
 73
     0
 74
     0
 77
     1
 78
     8
 79
     2
140
3.5
141
0.0
143
0.0393701
146
0.71
147
1.5
172
     1
176
   256
177
   256
178
     2
271
     2
272
     3
274
     4
283
     0
284
     8
340
5D
371
    -1
372
    -1
1001
ACAD_DSTYLE_DIMJOGGED_JOGANGLE_SYMBOL
1070
   384
1040
1.570796326794896
  0
DIMSTYLE
105
E0E
330
A
100
AcDbSymbolTableRecord
100
AcDbDimStyleTableRecord
  2
AM_DIN$3
 70
     0
  4
"
 41
2.5
 42
1.0
 43
10.0
 44
1.0
 47
0.1
 48
0.1
 73
     0
 77
     1
 78
     8
 79
     2
140
3.5
141
0.0
143
0.0393701
146
0.71
147
1.5
176
   256
177
   256
178
     2
271
     2
272
     3
274
     4
283
     0
284
     8
288
     1
289
     0
340
5D
371
    -1
372
    -1
1001
ACAD_DSTYLE_DIMJOGGED_JOGANGLE_SYMBOL
1070
   384
1040
1.570796326794896
  0
DIMSTYLE
105
E0F
330
A
100
AcDbSymbolTableRecord
100
AcDbDimStyleTableRecord
  2
AM_DIN$4
 70
     0
  4
"
 41
2.5
 42
1.0
 43
10.0
 44
1.0
 47
0.1
 48
0.1
 73
     0
 77
     1
 78
     8
 79
     2
140
3.5
141
0.0
143
0.0393701
146
0.71
147
1.5
176
   256
177
   256
178
     2
271
     2
272
     3
274
     4
283
     0
284
     8
288
     1
289
     0
340
5D
371
    -1
372
    -1
1001
ACAD_DSTYLE_DIMJOGGED_JOGANGLE_SYMBOL
1070
   384
1040
1.570796326794896
  0
DIMSTYLE
105
E10
330
A
100
AcDbSymbolTableRecord
100
AcDbDimStyleTableRecord
  2
AM_DIN$6
 70
     0
  4
"
 41
2.5
 42
1.0
 43
10.0
 44
1.0
 47
0.1
 48
0.1
 73
     0
 74
     0
 78
     8
 79
     2
140
3.5
141
0.0
143
0.0393701
146
0.71
147
1.5
172
     1
176
   256
177
   256
178
     2
271
     2
272
     3
274
     4
283
     0
284
     8
340
5D
371
    -1
372
    -1
1001
ACAD_DSTYLE_DIMJOGGED_JOGANGLE_SYMBOL
1070
   384
1040
1.570796326794896
  0
DIMSTYLE
105
E11
330
A
100
AcDbSymbolTableRecord
100
AcDbDimStyleTableRecord
  2
AM_DIN$7
 70
     0
  4
"
 41
2.5
 42
1.0
 43
10.0
 44
1.0
 47
0.1
 48
0.1
 73
     0
 74
     0
 77
     1
 78
     8
 79
     2
140
5.0
141
0.0
143
0.0393701
146
0.71
147
1.5
172
     1
176
   256
177
   256
178
     2
271
     2
272
     3
274
     4
283
     0
284
     8
340
5D
371
    -1
372
    -1
1001
ACAD_DSTYLE_DIMJOGGED_JOGANGLE_SYMBOL
1070
   384
1040
1.570796326794896
  0
DIMSTYLE
105
E12
330
A
100
AcDbSymbolTableRecord
100
AcDbDimStyleTableRecord
  2
AM_DIN$SF
 70
     0
  4
"
 41
2.5
 42
1.0
 43
10.0
 44
1.0
 47
0.1
 48
0.1
 73
     0
 74
     0
 75
     1
 76
     1
 77
     1
 78
     8
 79
     2
140
3.5
141
0.0
143
0.0393701
146
0.71
147
1.5
172
     1
176
   256
177
   256
178
     2
271
     2
272
     3
274
     4
283
     0
284
     8
340
5D
371
    -1
372
    -1
1001
ACAD_DSTYLE_DIMJOGGED_JOGANGLE_SYMBOL
1070
   384
1040
1.570796326794896
  0
DIMSTYLE
105
E17
330
A
100
AcDbSymbolTableRecord
100
AcDbDimStyleTableRecord
  2
AM_DIN$SH
 70
     0
  4
"
 41
2.5
 42
1.0
 43
10.0
 44
1.0
 47
0.1
 48
0.1
 73
     0
 74
     0
 75
     1
 76
     1
 77
     1
 78
     8
 79
     2
140
3.5
141
0.0
143
0.0393701
144
2.0
146
0.71
147
1.5
172
     1
173
     1
176
   256
177
   256
178
     2
271
     2
272
     3
274
     4
283
     0
284
     8
340
5D
343
E13
371
    -1
372
    -1
1001
ACAD_DSTYLE_DIMJOGGED_JOGANGLE_SYMBOL
1070
   384
1040
1.570796326794896
  0
ENDTAB
  0
TABLE
  2
BLOCK_RECORD
  5
1
330
0
100
AcDbSymbolTable
 70
     3
  0
BLOCK_RECORD
  5
75
330
1
100
AcDbSymbolTableRecord
100
AcDbBlockTableRecord
  2
*Model_Space
340
78
  0
BLOCK_RECORD
  5
71
330
1
100
AcDbSymbolTableRecord
100
AcDbBlockTableRecord
  2
*Paper_Space
340
74
  0
BLOCK_RECORD
  5
79
330
1
100
AcDbSymbolTableRecord
100
AcDbBlockTableRecord
  2
*Paper_Space0
340
7C
  0
BLOCK_RECORD
  5
E13
330
1
100
AcDbSymbolTableRecord
100
AcDbBlockTableRecord
  2
GENAXEH
340
0
  0
ENDTAB
  0
ENDSEC
  0
SECTION
  2
BLOCKS
  0
BLOCK
  5
76
330
75
100
AcDbEntity
  8
0
100
AcDbBlockBegin
  2
*Model_Space
 70
     0
 10
0.0
 20
0.0
 30
0.0
  3
*Model_Space
  1

  0
ENDBLK
  5
77
330
75
100
AcDbEntity
  8
0
100
AcDbBlockEnd
  0
BLOCK
  5
72
330
71
100
AcDbEntity
 67
     1
  8
0
100
AcDbBlockBegin
  2
*Paper_Space
 70
     0
 10
0.0
 20
0.0
 30
0.0
  3
*Paper_Space
  1

  0
ENDBLK
  5
73
330
71
100
AcDbEntity
 67
     1
  8
0
100
AcDbBlockEnd
  0
BLOCK
  5
7A
330
79
100
AcDbEntity
 67
     1
  8
0
100
AcDbBlockBegin
  2
*Paper_Space0
 70
     0
 10
0.0
 20
0.0
 30
0.0
  3
*Paper_Space0
  1

  0
ENDBLK
  5
7B
330
79
100
AcDbEntity
 67
     1
  8
0
100
AcDbBlockEnd
  0
BLOCK
  5
E15
330
E13
100
AcDbEntity
  8
0
100
AcDbBlockBegin
  2
GENAXEH
 70
     0
 10
0.0
 20
0.0
 30
0.0
  3
GENAXEH
  1

  0
LINE
  5
E14
330
E13
100
AcDbEntity
  8
0
100
AcDbLine
 10
-1.0
 20
0.0
 30
0.0
 11
1.0
 21
0.0
 31
0.0
  0
ENDBLK
  5
E16
330
E13
100
AcDbEntity
  8
0
100
AcDbBlockEnd
  0
ENDSEC
  0
SECTION
  2
ENTITIES
  0
LINE
  5
142
330
75
100
AcDbEntity
  8
0
100
AcDbLine
 10
230.0504890324019
 20
91.74708019924002
 30
0.0
 11
230.0504890324019
 21
122.74708019924
 31
0.0
  0
LINE
  5
143
330
75
100
AcDbEntity
  8
0
100
AcDbLine
 10
231.0504890324019
 20
121.74708019924
 30
0.0
 11
231.0504890324019
 21
92.74708019924005
 31
0.0
  0
LINE
  5
144
330
75
100
AcDbEntity
  8
0
100
AcDbLine
 10
231.0504890324019
 20
92.74708019924005
 30
0.0
 11
230.0504890324019
 21
91.74708019924002
 31
0.0
  0
LINE
  5
145
330
75
100
AcDbEntity
  8
0
100
AcDbLine
 10
231.0504890324019
 20
121.74708019924
 30
0.0
 11
230.0504890324019
 21
122.74708019924
 31
0.0
  0
LINE
  5
146
330
75
100
AcDbEntity
  8
0
100
AcDbLine
 10
186.5504890324018
 20
122.74708019924
 30
0.0
 11
186.5504890324018
 21
91.74708019924002
 31
0.0
  0
LINE
  5
147
330
75
100
AcDbEntity
  8
0
100
AcDbLine
 10
186.0504890324019
 20
91.88105479545559
 30
0.0
 11
186.0504890324019
 21
122.6131056030244
 31
0.0
  0
LINE
  5
148
330
75
100
AcDbEntity
  8
0
100
AcDbLine
 10
186.0504890324019
 20
122.6131056030244
 30
0.0
 11
186.5504890324018
 21
122.74708019924
 31
0.0
  0
LINE
  5
149
330
75
100
AcDbEntity
  8
0
100
AcDbLine
 10
186.0504890324019
 20
91.88105479545559
 30
0.0
 11
186.5504890324018
 21
91.74708019924002
 31
0.0
  0
LINE
  5
14A
330
75
100
AcDbEntity
  8
0
100
AcDbLine
 10
186.5504890324018
 20
122.74708019924
 30
0.0
 11
230.0504890324019
 21
122.74708019924
 31
0.0
  0
LINE
  5
14B
330
75
100
AcDbEntity
  8
0
100
AcDbLine
 10
186.5504890324018
 20
91.74708019924002
 30
0.0
 11
230.0504890324019
 21
91.74708019924002
 31
0.0
  0
LINE
  5
14C
330
75
100
AcDbEntity
  8
0
100
AcDbLine
 10
185.0504890324018
 20
122.74708019924
 30
0.0
 11
185.0504890324018
 21
91.74708019924
 31
0.0
  0
LINE
  5
14D
330
75
100
AcDbEntity
  8
0
100
AcDbLine
 10
137.5504890324019
 20
122.74708019924
 30
0.0
 11
137.5504890324019
 21
91.74708019924
 31
0.0
  0
LINE
  5
14E
330
75
100
AcDbEntity
  8
0
100
AcDbLine
 10
186.0504890324019
 20
94.04708019923999
 30
0.0
 11
185.0504890324018
 21
94.04708019923999
 31
0.0
  0
LINE
  5
14F
330
75
100
AcDbEntity
  8
0
100
AcDbLine
 10
186.0504890324019
 20
120.44708019924
 30
0.0
 11
185.0504890324018
 21
120.44708019924
 31
0.0
  0
LINE
  5
150
330
75
100
AcDbEntity
  8
0
100
AcDbLine
 10
185.0504890324018
 20
91.74708019924
 30
0.0
 11
137.5504890324019
 21
91.74708019924
 31
0.0
  0
LINE
  5
151
330
75
100
AcDbEntity
  8
0
100
AcDbLine
 10
185.0504890324018
 20
122.74708019924
 30
0.0
 11
137.5504890324019
 21
122.74708019924
 31
0.0
  0
LINE
  5
152
330
75
100
AcDbEntity
  8
0
100
AcDbLine
 10
137.5504890324018
 20
94.04708019923999
 30
0.0
 11
136.3504890324019
 21
94.04708019923999
 31
0.0
  0
LINE
  5
153
330
75
100
AcDbEntity
  8
0
100
AcDbLine
 10
137.5504890324018
 20
120.44708019924
 30
0.0
 11
136.3504890324019
 21
120.44708019924
 31
0.0
  0
POLYLINE
  5
154
330
75
100
AcDbEntity
  8
0
100
AcDb2dPolyline
 66
     1
 10
0.0
 20
0.0
 30
0.0
 70
   128
  0
VERTEX
  5
155
330
154
100
AcDbEntity
  8
0
100
AcDbVertex
100
AcDb2dVertex
 10
119.8504889727972
 20
109.2470802290423
 30
0.0
  0
VERTEX
  5
156
330
154
100
AcDbEntity
  8
0
100
AcDbVertex
100
AcDb2dVertex
 10
120.3435624362372
 20
109.1848760766967
 30
0.0
  0
VERTEX
  5
158
330
154
100
AcDbEntity
  8
0
100
AcDbVertex
100
AcDb2dVertex
 10
120.8175132395171
 20
108.9973609073146
 30
0.0
  0
VERTEX
  5
159
330
154
100
AcDbEntity
  8
0
100
AcDbVertex
100
AcDb2dVertex
 10
121.2212232471846
 20
108.7034113628848
 30
0.0
  0
VERTEX
  5
15A
330
154
100
AcDbEntity
  8
0
100
AcDbVertex
100
AcDb2dVertex
 10
121.5356484772108
 20
108.3232577068789
 30
0.0
  0
VERTEX
  5
15B
330
154
100
AcDbEntity
  8
0
100
AcDbVertex
100
AcDb2dVertex
 10
121.7531410576246
 20
107.8627429826243
 30
0.0
  0
VERTEX
  5
15C
330
154
100
AcDbEntity
  8
0
100
AcDbVertex
100
AcDb2dVertex
 10
121.8466196180723
 20
107.3688804095669
 30
0.0
  0
VERTEX
  5
15D
330
154
100
AcDbEntity
  8
0
100
AcDbVertex
100
AcDb2dVertex
 10
121.8155536772154
 20
106.8778023047431
 30
0.0
  0
VERTEX
  5
15E
330
154
100
AcDbEntity
  8
0
100
AcDbVertex
100
AcDb2dVertex
 10
121.6591421486281
 20
106.3936176074727
 30
0.0
  0
VERTEX
  5
15F
330
154
100
AcDbEntity
  8
0
100
AcDbVertex
100
AcDb2dVertex
 10
121.3879773737334
 20
105.9684161765559
 30
0.0
  0
VERTEX
  5
160
330
154
100
AcDbEntity
  8
0
100
AcDbVertex
100
AcDb2dVertex
 10
121.0307431937597
 20
105.6330731434806
 30
0.0
  0
VERTEX
  5
161
330
154
100
AcDbEntity
  8
0
100
AcDbVertex
100
AcDb2dVertex
 10
120.5865798117064
 20
105.3874778671248
 30
0.0
  0
VERTEX
  5
162
330
154
100
AcDbEntity
  8
0
100
AcDbVertex
100
AcDb2dVertex
 10
120.0956941367529
 20
105.2625824434741
 30
0.0
  0
VERTEX
  5
163
330
154
100
AcDbEntity
  8
0
100
AcDbVertex
100
AcDb2dVertex
 10
119.6052841068648
 20
105.2625824434741
 30
0.0
  0
VERTEX
  5
164
330
154
100
AcDbEntity
  8
0
100
AcDbVertex
100
AcDb2dVertex
 10
119.1143984319113
 20
105.3874778671248
 30
0.0
  0
VERTEX
  5
165
330
154
100
AcDbEntity
  8
0
100
AcDbVertex
100
AcDb2dVertex
 10
118.6702349008463
 20
105.6330731434806
 30
0.0
  0
VERTEX
  5
166
330
154
100
AcDbEntity
  8
0
100
AcDbVertex
100
AcDb2dVertex
 10
118.3130005718611
 20
105.9684161765559
 30
0.0
  0
VERTEX
  5
167
330
154
100
AcDbEntity
  8
0
100
AcDbVertex
100
AcDb2dVertex
 10
118.041835945978
 20
106.3936176074727
 30
0.0
  0
VERTEX
  5
168
330
154
100
AcDbEntity
  8
0
100
AcDbVertex
100
AcDb2dVertex
 10
117.8854244173907
 20
106.8778023047431
 30
0.0
  0
VERTEX
  5
169
330
154
100
AcDbEntity
  8
0
100
AcDbVertex
100
AcDb2dVertex
 10
117.8543586255453
 20
107.3688804095669
 30
0.0
  0
VERTEX
  5
16A
330
154
100
AcDbEntity
  8
0
100
AcDbVertex
100
AcDb2dVertex
 10
117.9478367389582
 20
107.8627429826243
 30
0.0
  0
VERTEX
  5
16B
330
154
100
AcDbEntity
  8
0
100
AcDbVertex
100
AcDb2dVertex
 10
118.165329319372
 20
108.3232577068789
 30
0.0
  0
VERTEX
  5
16C
330
154
100
AcDbEntity
  8
0
100
AcDbVertex
100
AcDb2dVertex
 10
118.4797546984099
 20
108.7034113628848
 30
0.0
  0
VERTEX
  5
16D
330
154
100
AcDbEntity
  8
0
100
AcDbVertex
100
AcDb2dVertex
 10
118.8834650041006
 20
108.9973609073146
 30
0.0
  0
VERTEX
  5
16E
330
154
100
AcDbEntity
  8
0
100
AcDbVertex
100
AcDb2dVertex
 10
119.3574158073805
 20
109.1848760766967
 30
0.0
  0
VERTEX
  5
16F
330
154
100
AcDbEntity
  8
0
100
AcDbVertex
100
AcDb2dVertex
 10
119.8504889727972
 20
109.2470802290423
 30
0.0
  0
SEQEND
  5
157
330
154
100
AcDbEntity
  8
0
  0
LINE
  5
170
330
75
100
AcDbEntity
  8
0
100
AcDbLine
 10
135.8504890324019
 20
91.74708019924002
 30
0.0
 11
135.8504890324019
 21
122.74708019924
 31
0.0
  0
LINE
  5
171
330
75
100
AcDbEntity
  8
0
100
AcDbLine
 10
136.3504890324019
 20
122.6131056030244
 30
0.0
 11
136.3504890324019
 21
91.88105479545559
 31
0.0
  0
LINE
  5
172
330
75
100
AcDbEntity
  8
0
100
AcDbLine
 10
136.3504890324019
 20
91.88105479545559
 30
0.0
 11
135.8504890324019
 21
91.74708019924
 31
0.0
  0
LINE
  5
173
330
75
100
AcDbEntity
  8
0
100
AcDbLine
 10
136.3504890324019
 20
122.6131056030244
 30
0.0
 11
135.8504890324019
 21
122.74708019924
 31
0.0
  0
LINE
  5
174
330
75
100
AcDbEntity
  8
0
100
AcDbLine
 10
117.3504890324019
 20
122.74708019924
 30
0.0
 11
117.3504890324019
 21
91.74708019924002
 31
0.0
  0
LINE
  5
175
330
75
100
AcDbEntity
  8
0
100
AcDbLine
 10
116.3504890324019
 20
92.74708019924005
 30
0.0
 11
116.3504890324019
 21
121.74708019924
 31
0.0
  0
LINE
  5
176
330
75
100
AcDbEntity
  8
0
100
AcDbLine
 10
116.3504890324019
 20
121.74708019924
 30
0.0
 11
117.3504890324019
 21
122.74708019924
 31
0.0
  0
LINE
  5
177
330
75
100
AcDbEntity
  8
0
100
AcDbLine
 10
116.3504890324019
 20
92.74708019924005
 30
0.0
 11
117.3504890324019
 21
91.74708019924002
 31
0.0
  0
LINE
  5
178
330
75
100
AcDbEntity
  8
0
100
AcDbLine
 10
117.3504890324019
 20
122.74708019924
 30
0.0
 11
135.8504890324019
 21
122.74708019924
 31
0.0
  0
LINE
  5
179
330
75
100
AcDbEntity
  8
0
100
AcDbLine
 10
117.3504890324019
 20
91.74708019924002
 30
0.0
 11
135.8504890324019
 21
91.74708019924002
 31
0.0
  0
LINE
  5
17A
330
75
100
AcDbEntity
  8
0
100
AcDbLine
 10
114.9659025584405
 20
112.24708019924
 30
0.0
 11
116.3504890324019
 21
112.24708019924
 31
0.0
  0
LINE
  5
17B
330
75
100
AcDbEntity
  8
0
100
AcDbLine
 10
114.9659025584405
 20
102.24708019924
 30
0.0
 11
116.3504890324019
 21
102.24708019924
 31
0.0
  0
LINE
  5
17C
330
75
100
AcDbEntity
  8
0
100
AcDbLine
 10
236.9004890324019
 20
113.99708019924
 30
0.0
 11
236.9004890324019
 21
113.7422707276233
 31
0.0
  0
LINE
  5
17D
330
75
100
AcDbEntity
  8
0
100
AcDbLine
 10
236.9004890324019
 20
100.7518896708567
 30
0.0
 11
236.9004890324019
 21
100.49708019924
 31
0.0
  0
LINE
  5
17E
330
75
100
AcDbEntity
  8
0
100
AcDbLine
 10
236.9004890324019
 20
105.5904751927181
 30
0.0
 11
236.9004890324019
 21
102.4084946773786
 31
0.0
  0
LINE
  5
17F
330
75
100
AcDbEntity
  8
0
100
AcDbLine
 10
236.9004890324019
 20
112.0856657211014
 30
0.0
 11
236.9004890324019
 21
108.9036852057619
 31
0.0
  0
POLYLINE
  5
180
330
75
100
AcDbEntity
  8
0
100
AcDb2dPolyline
 66
     1
 10
0.0
 20
0.0
 30
0.0
 70
   128
  0
VERTEX
  5
181
330
180
100
AcDbEntity
  8
0
100
AcDbVertex
100
AcDb2dVertex
 10
231.0504891158484
 20
113.0927514953597
 30
0.0
  0
VERTEX
  5
182
330
180
100
AcDbEntity
  8
0
100
AcDbVertex
100
AcDb2dVertex
 10
231.0509972454451
 20
113.1472545785888
 30
0.0
  0
VERTEX
  5
184
330
180
100
AcDbEntity
  8
0
100
AcDbVertex
100
AcDb2dVertex
 10
231.0525174619101
 20
113.2016587181075
 30
0.0
  0
VERTEX
  5
185
330
180
100
AcDbEntity
  8
0
100
AcDbVertex
100
AcDb2dVertex
 10
231.0550444008254
 20
113.2559859676345
 30
0.0
  0
VERTEX
  5
186
330
180
100
AcDbEntity
  8
0
100
AcDbVertex
100
AcDb2dVertex
 10
231.0585735918425
 20
113.3102559967025
 30
0.0
  0
VERTEX
  5
187
330
180
100
AcDbEntity
  8
0
100
AcDbVertex
100
AcDb2dVertex
 10
231.0631005646132
 20
113.3644914550765
 30
0.0
  0
VERTEX
  5
188
330
180
100
AcDbEntity
  8
0
100
AcDbVertex
100
AcDb2dVertex
 10
231.0686226369284
 20
113.4187120122893
 30
0.0
  0
VERTEX
  5
189
330
180
100
AcDbEntity
  8
0
100
AcDbVertex
100
AcDb2dVertex
 10
231.0751374246024
 20
113.4729391260131
 30
0.0
  0
VERTEX
  5
18A
330
180
100
AcDbEntity
  8
0
100
AcDbVertex
100
AcDb2dVertex
 10
231.082643437519
 20
113.5271924657805
 30
0.0
  0
VERTEX
  5
18B
330
180
100
AcDbEntity
  8
0
100
AcDbVertex
100
AcDb2dVertex
 10
231.0911394835852
 20
113.5814928932174
 30
0.0
  0
VERTEX
  5
18C
330
180
100
AcDbEntity
  8
0
100
AcDbVertex
100
AcDb2dVertex
 10
231.1006258608244
 20
113.6358612699492
 30
0.0
  0
VERTEX
  5
18D
330
180
100
AcDbEntity
  8
0
100
AcDbVertex
100
AcDb2dVertex
 10
231.1111031652831
 20
113.6903178615554
 30
0.0
  0
VERTEX
  5
18E
330
180
100
AcDbEntity
  8
0
100
AcDbVertex
100
AcDb2dVertex
 10
231.1225728870772
 20
113.744882933615
 30
0.0
  0
VERTEX
  5
18F
330
180
100
AcDbEntity
  8
0
100
AcDbVertex
100
AcDb2dVertex
 10
231.1350371123694
 20
113.7995761556609
 30
0.0
  0
VERTEX
  5
190
330
180
100
AcDbEntity
  8
0
100
AcDbVertex
100
AcDb2dVertex
 10
231.1484988213919
 20
113.8544189853652
 30
0.0
  0
VERTEX
  5
191
330
180
100
AcDbEntity
  8
0
100
AcDbVertex
100
AcDb2dVertex
 10
231.1629615904235
 20
113.9094310922606
 30
0.0
  0
VERTEX
  5
192
330
180
100
AcDbEntity
  8
0
100
AcDbVertex
100
AcDb2dVertex
 10
231.1784301878356
 20
113.9646333379729
 30
0.0
  0
VERTEX
  5
193
330
180
100
AcDbEntity
  8
0
100
AcDbVertex
100
AcDb2dVertex
 10
231.1949093819999
 20
114.0200471801741
 30
0.0
  0
VERTEX
  5
194
330
180
100
AcDbEntity
  8
0
100
AcDbVertex
100
AcDb2dVertex
 10
231.212405431404
 20
114.0756928844436
 30
0.0
  0
VERTEX
  5
195
330
180
100
AcDbEntity
  8
0
100
AcDbVertex
100
AcDb2dVertex
 10
231.2309248925589
 20
114.1315907163604
 30
0.0
  0
VERTEX
  5
196
330
180
100
AcDbEntity
  8
0
100
AcDbVertex
100
AcDb2dVertex
 10
231.2504755140685
 20
114.1877633256896
 30
0.0
  0
VERTEX
  5
197
330
180
100
AcDbEntity
  8
0
100
AcDbVertex
100
AcDb2dVertex
 10
231.2710650445365
 20
114.2442315740569
 30
0.0
  0
VERTEX
  5
198
330
180
100
AcDbEntity
  8
0
100
AcDbVertex
100
AcDb2dVertex
 10
231.2927030207061
 20
114.301016323088
 30
0.0
  0
VERTEX
  5
199
330
180
100
AcDbEntity
  8
0
100
AcDbVertex
100
AcDb2dVertex
 10
231.3153992773436
 20
114.3581414146407
 30
0.0
  0
VERTEX
  5
19A
330
180
100
AcDbEntity
  8
0
100
AcDbVertex
100
AcDb2dVertex
 10
231.339164245262
 20
114.4156271142943
 30
0.0
  0
SEQEND
  5
183
330
180
100
AcDbEntity
  8
0
  0
LINE
  5
19B
330
75
100
AcDbEntity
  8
0
100
AcDbLine
 10
231.3391641669968
 20
114.49708019924
 30
0.0
 11
231.3391641669968
 21
114.4156273303173
 31
0.0
  0
LINE
  5
19C
330
75
100
AcDbEntity
  8
0
100
AcDbLine
 10
231.3391641669968
 20
100.0785330681628
 30
0.0
 11
231.3391641669968
 21
99.99708019924007
 31
0.0
  0
POLYLINE
  5
19D
330
75
100
AcDbEntity
  8
0
100
AcDb2dPolyline
 66
     1
 10
0.0
 20
0.0
 30
0.0
 70
   128
  0
VERTEX
  5
19E
330
19D
100
AcDbEntity
  8
0
100
AcDbVertex
100
AcDb2dVertex
 10
231.339164245262
 20
100.0785332841857
 30
0.0
  0
VERTEX
  5
19F
330
19D
100
AcDbEntity
  8
0
100
AcDbVertex
100
AcDb2dVertex
 10
231.3153992773436
 20
100.1360189838393
 30
0.0
  0
VERTEX
  5
1A1
330
19D
100
AcDbEntity
  8
0
100
AcDbVertex
100
AcDb2dVertex
 10
231.2927030207061
 20
100.1931440753921
 30
0.0
  0
VERTEX
  5
1A2
330
19D
100
AcDbEntity
  8
0
100
AcDbVertex
100
AcDb2dVertex
 10
231.2710650445365
 20
100.249928824423
 30
0.0
  0
VERTEX
  5
1A3
330
19D
100
AcDbEntity
  8
0
100
AcDbVertex
100
AcDb2dVertex
 10
231.2504755140685
 20
100.3063970727904
 30
0.0
  0
VERTEX
  5
1A4
330
19D
100
AcDbEntity
  8
0
100
AcDbVertex
100
AcDb2dVertex
 10
231.2309248925589
 20
100.3625696821196
 30
0.0
  0
VERTEX
  5
1A5
330
19D
100
AcDbEntity
  8
0
100
AcDbVertex
100
AcDb2dVertex
 10
231.212405431404
 20
100.4184675140365
 30
0.0
  0
VERTEX
  5
1A6
330
19D
100
AcDbEntity
  8
0
100
AcDbVertex
100
AcDb2dVertex
 10
231.1949093819999
 20
100.4741132183059
 30
0.0
  0
VERTEX
  5
1A7
330
19D
100
AcDbEntity
  8
0
100
AcDbVertex
100
AcDb2dVertex
 10
231.1784301878356
 20
100.5295270605071
 30
0.0
  0
VERTEX
  5
1A8
330
19D
100
AcDbEntity
  8
0
100
AcDbVertex
100
AcDb2dVertex
 10
231.1629615904235
 20
100.5847293062194
 30
0.0
  0
VERTEX
  5
1A9
330
19D
100
AcDbEntity
  8
0
100
AcDbVertex
100
AcDb2dVertex
 10
231.1484988213919
 20
100.6397414131148
 30
0.0
  0
VERTEX
  5
1AA
330
19D
100
AcDbEntity
  8
0
100
AcDbVertex
100
AcDb2dVertex
 10
231.1350371123694
 20
100.6945842428191
 30
0.0
  0
VERTEX
  5
1AB
330
19D
100
AcDbEntity
  8
0
100
AcDbVertex
100
AcDb2dVertex
 10
231.1225728870772
 20
100.749277464865
 30
0.0
  0
VERTEX
  5
1AC
330
19D
100
AcDbEntity
  8
0
100
AcDbVertex
100
AcDb2dVertex
 10
231.1111031652831
 20
100.8038425369246
 30
0.0
  0
VERTEX
  5
1AD
330
19D
100
AcDbEntity
  8
0
100
AcDbVertex
100
AcDb2dVertex
 10
231.1006258608244
 20
100.8582991285308
 30
0.0
  0
VERTEX
  5
1AE
330
19D
100
AcDbEntity
  8
0
100
AcDbVertex
100
AcDb2dVertex
 10
231.0911394835852
 20
100.9126675052627
 30
0.0
  0
VERTEX
  5
1AF
330
19D
100
AcDbEntity
  8
0
100
AcDbVertex
100
AcDb2dVertex
 10
231.082643437519
 20
100.9669679326995
 30
0.0
  0
VERTEX
  5
1B0
330
19D
100
AcDbEntity
  8
0
100
AcDbVertex
100
AcDb2dVertex
 10
231.0751374246024
 20
101.0212212724669
 30
0.0
  0
VERTEX
  5
1B1
330
19D
100
AcDbEntity
  8
0
100
AcDbVertex
100
AcDb2dVertex
 10
231.0686226369284
 20
101.0754483861907
 30
0.0
  0
VERTEX
  5
1B2
330
19D
100
AcDbEntity
  8
0
100
AcDbVertex
100
AcDb2dVertex
 10
231.0631005646132
 20
101.1296689434035
 30
0.0
  0
VERTEX
  5
1B3
330
19D
100
AcDbEntity
  8
0
100
AcDbVertex
100
AcDb2dVertex
 10
231.0585735918425
 20
101.1839044017776
 30
0.0
  0
VERTEX
  5
1B4
330
19D
100
AcDbEntity
  8
0
100
AcDbVertex
100
AcDb2dVertex
 10
231.0550444008254
 20
101.2381744308455
 30
0.0
  0
VERTEX
  5
1B5
330
19D
100
AcDbEntity
  8
0
100
AcDbVertex
100
AcDb2dVertex
 10
231.0525174619101
 20
101.2925016803725
 30
0.0
  0
VERTEX
  5
1B6
330
19D
100
AcDbEntity
  8
0
100
AcDbVertex
100
AcDb2dVertex
 10
231.0509972454451
 20
101.3469058198912
 30
0.0
  0
VERTEX
  5
1B7
330
19D
100
AcDbEntity
  8
0
100
AcDbVertex
100
AcDb2dVertex
 10
231.0504891158484
 20
101.4014089031203
 30
0.0
  0
SEQEND
  5
1A0
330
19D
100
AcDbEntity
  8
0
  0
POLYLINE
  5
1B8
330
75
100
AcDbEntity
  8
0
100
AcDb2dPolyline
 66
     1
 10
0.0
 20
0.0
 30
0.0
 70
   128
  0
VERTEX
  5
1B9
330
1B8
100
AcDbEntity
  8
0
100
AcDbVertex
100
AcDb2dVertex
 10
231.0504891158484
 20
101.4014089031203
 30
0.0
  0
VERTEX
  5
1BA
330
1B8
100
AcDbEntity
  8
0
100
AcDbVertex
100
AcDb2dVertex
 10
231.0509972454451
 20
101.4559119863494
 30
0.0
  0
VERTEX
  5
1BC
330
1B8
100
AcDbEntity
  8
0
100
AcDbVertex
100
AcDb2dVertex
 10
231.0525174619101
 20
101.5103161258681
 30
0.0
  0
VERTEX
  5
1BD
330
1B8
100
AcDbEntity
  8
0
100
AcDbVertex
100
AcDb2dVertex
 10
231.0550444008254
 20
101.5646427793486
 30
0.0
  0
VERTEX
  5
1BE
330
1B8
100
AcDbEntity
  8
0
100
AcDbVertex
100
AcDb2dVertex
 10
231.0585735918425
 20
101.6189134044631
 30
0.0
  0
VERTEX
  5
1BF
330
1B8
100
AcDbEntity
  8
0
100
AcDbVertex
100
AcDb2dVertex
 10
231.0631005646132
 20
101.6731482667907
 30
0.0
  0
VERTEX
  5
1C0
330
1B8
100
AcDbEntity
  8
0
100
AcDbVertex
100
AcDb2dVertex
 10
231.0686226369284
 20
101.7273688240035
 30
0.0
  0
VERTEX
  5
1C1
330
1B8
100
AcDbEntity
  8
0
100
AcDbVertex
100
AcDb2dVertex
 10
231.0751374246024
 20
101.7815959377273
 30
0.0
  0
VERTEX
  5
1C2
330
1B8
100
AcDbEntity
  8
0
100
AcDbVertex
100
AcDb2dVertex
 10
231.082643437519
 20
101.8358492774947
 30
0.0
  0
VERTEX
  5
1C3
330
1B8
100
AcDbEntity
  8
0
100
AcDbVertex
100
AcDb2dVertex
 10
231.0911394835852
 20
101.890150300978
 30
0.0
  0
VERTEX
  5
1C4
330
1B8
100
AcDbEntity
  8
0
100
AcDbVertex
100
AcDb2dVertex
 10
231.1006258608244
 20
101.9445186777099
 30
0.0
  0
VERTEX
  5
1C5
330
1B8
100
AcDbEntity
  8
0
100
AcDbVertex
100
AcDb2dVertex
 10
231.1111031652831
 20
101.9989746732695
 30
0.0
  0
VERTEX
  5
1C6
330
1B8
100
AcDbEntity
  8
0
100
AcDbVertex
100
AcDb2dVertex
 10
231.1225728870772
 20
102.0535397453292
 30
0.0
  0
VERTEX
  5
1C7
330
1B8
100
AcDbEntity
  8
0
100
AcDbVertex
100
AcDb2dVertex
 10
231.1350371123694
 20
102.1082329673751
 30
0.0
  0
VERTEX
  5
1C8
330
1B8
100
AcDbEntity
  8
0
100
AcDbVertex
100
AcDb2dVertex
 10
231.1484988213919
 20
102.1630757970794
 30
0.0
  0
VERTEX
  5
1C9
330
1B8
100
AcDbEntity
  8
0
100
AcDbVertex
100
AcDb2dVertex
 10
231.1629615904235
 20
102.2180879039748
 30
0.0
  0
VERTEX
  5
1CA
330
1B8
100
AcDbEntity
  8
0
100
AcDbVertex
100
AcDb2dVertex
 10
231.1784301878356
 20
102.2732907457335
 30
0.0
  0
VERTEX
  5
1CB
330
1B8
100
AcDbEntity
  8
0
100
AcDbVertex
100
AcDb2dVertex
 10
231.1949093819999
 20
102.3287042899115
 30
0.0
  0
VERTEX
  5
1CC
330
1B8
100
AcDbEntity
  8
0
100
AcDbVertex
100
AcDb2dVertex
 10
231.212405431404
 20
102.3843496961577
 30
0.0
  0
VERTEX
  5
1CD
330
1B8
100
AcDbEntity
  8
0
100
AcDbVertex
100
AcDb2dVertex
 10
231.2309248925589
 20
102.4402478260978
 30
0.0
  0
VERTEX
  5
1CE
330
1B8
100
AcDbEntity
  8
0
100
AcDbVertex
100
AcDb2dVertex
 10
231.2504755140685
 20
102.496420435427
 30
0.0
  0
VERTEX
  5
1CF
330
1B8
100
AcDbEntity
  8
0
100
AcDbVertex
100
AcDb2dVertex
 10
231.2710650445365
 20
102.5528883857711
 30
0.0
  0
VERTEX
  5
1D0
330
1B8
100
AcDbEntity
  8
0
100
AcDbVertex
100
AcDb2dVertex
 10
231.2927030207061
 20
102.6096737308486
 30
0.0
  0
VERTEX
  5
1D1
330
1B8
100
AcDbEntity
  8
0
100
AcDbVertex
100
AcDb2dVertex
 10
231.3153992773436
 20
102.6667982263549
 30
0.0
  0
VERTEX
  5
1D2
330
1B8
100
AcDbEntity
  8
0
100
AcDbVertex
100
AcDb2dVertex
 10
231.339164245262
 20
102.7242845220549
 30
0.0
  0
SEQEND
  5
1BB
330
1B8
100
AcDbEntity
  8
0
  0
LINE
  5
1D3
330
75
100
AcDbEntity
  8
0
100
AcDbLine
 10
231.3391641669968
 20
104.6013288881754
 30
0.0
 11
231.3391641669968
 21
102.7242843792273
 31
0.0
  0
POLYLINE
  5
1D4
330
75
100
AcDbEntity
  8
0
100
AcDb2dPolyline
 66
     1
 10
0.0
 20
0.0
 30
0.0
 70
   128
  0
VERTEX
  5
1D5
330
1D4
100
AcDbEntity
  8
0
100
AcDbVertex
100
AcDb2dVertex
 10
231.339164245262
 20
104.6013289613707
 30
0.0
  0
VERTEX
  5
1D6
330
1D4
100
AcDbEntity
  8
0
100
AcDbVertex
100
AcDb2dVertex
 10
231.3153992773436
 20
104.7163012547477
 30
0.0
  0
VERTEX
  5
1D8
330
1D4
100
AcDbEntity
  8
0
100
AcDbVertex
100
AcDb2dVertex
 10
231.2927030207061
 20
104.8305503947718
 30
0.0
  0
VERTEX
  5
1D9
330
1D4
100
AcDbEntity
  8
0
100
AcDbVertex
100
AcDb2dVertex
 10
231.2710650445365
 20
104.9441209359153
 30
0.0
  0
VERTEX
  5
1DA
330
1D4
100
AcDbEntity
  8
0
100
AcDbVertex
100
AcDb2dVertex
 10
231.2504755140685
 20
105.057056985615
 30
0.0
  0
VERTEX
  5
1DB
330
1D4
100
AcDbEntity
  8
0
100
AcDbVertex
100
AcDb2dVertex
 10
231.2309248925589
 20
105.1694017572387
 30
0.0
  0
VERTEX
  5
1DC
330
1D4
100
AcDbEntity
  8
0
100
AcDbVertex
100
AcDb2dVertex
 10
231.212405431404
 20
105.2811983151419
 30
0.0
  0
VERTEX
  5
1DD
330
1D4
100
AcDbEntity
  8
0
100
AcDbVertex
100
AcDb2dVertex
 10
231.1949093819999
 20
105.3924891276343
 30
0.0
  0
VERTEX
  5
1DE
330
1D4
100
AcDbEntity
  8
0
100
AcDbVertex
100
AcDb2dVertex
 10
231.1784301878356
 20
105.503316365002
 30
0.0
  0
VERTEX
  5
1DF
330
1D4
100
AcDbEntity
  8
0
100
AcDbVertex
100
AcDb2dVertex
 10
231.1629615904235
 20
105.613721452473
 30
0.0
  0
VERTEX
  5
1E0
330
1D4
100
AcDbEntity
  8
0
100
AcDbVertex
100
AcDb2dVertex
 10
231.1484988213919
 20
105.7237461132987
 30
0.0
  0
VERTEX
  5
1E1
330
1D4
100
AcDbEntity
  8
0
100
AcDbVertex
100
AcDb2dVertex
 10
231.1350371123694
 20
105.8334313256724
 30
0.0
  0
VERTEX
  5
1E2
330
1D4
100
AcDbEntity
  8
0
100
AcDbVertex
100
AcDb2dVertex
 10
231.1225728870772
 20
105.9428182167991
 30
0.0
  0
VERTEX
  5
1E3
330
1D4
100
AcDbEntity
  8
0
100
AcDbVertex
100
AcDb2dVertex
 10
231.1111031652831
 20
106.0519476903661
 30
0.0
  0
VERTEX
  5
1E4
330
1D4
100
AcDbEntity
  8
0
100
AcDbVertex
100
AcDb2dVertex
 10
231.1006258608244
 20
106.1608604265435
 30
0.0
  0
VERTEX
  5
1E5
330
1D4
100
AcDbEntity
  8
0
100
AcDbVertex
100
AcDb2dVertex
 10
231.0911394835852
 20
106.2695971800073
 30
0.0
  0
VERTEX
  5
1E6
330
1D4
100
AcDbEntity
  8
0
100
AcDbVertex
100
AcDb2dVertex
 10
231.082643437519
 20
106.3781987054332
 30
0.0
  0
VERTEX
  5
1E7
330
1D4
100
AcDbEntity
  8
0
100
AcDbVertex
100
AcDb2dVertex
 10
231.0751374246024
 20
106.4867058320029
 30
0.0
  0
VERTEX
  5
1E8
330
1D4
100
AcDbEntity
  8
0
100
AcDbVertex
100
AcDb2dVertex
 10
231.0686226369284
 20
106.5951595379098
 30
0.0
  0
VERTEX
  5
1E9
330
1D4
100
AcDbEntity
  8
0
100
AcDbVertex
100
AcDb2dVertex
 10
231.0631005646132
 20
106.7036008758529
 30
0.0
  0
VERTEX
  5
1EA
330
1D4
100
AcDbEntity
  8
0
100
AcDbVertex
100
AcDb2dVertex
 10
231.0585735918425
 20
106.8120711965545
 30
0.0
  0
VERTEX
  5
1EB
330
1D4
100
AcDbEntity
  8
0
100
AcDbVertex
100
AcDb2dVertex
 10
231.0550444008254
 20
106.9206121487601
 30
0.0
  0
VERTEX
  5
1EC
330
1D4
100
AcDbEntity
  8
0
100
AcDbVertex
100
AcDb2dVertex
 10
231.0525174619101
 20
107.0292656606121
 30
0.0
  0
VERTEX
  5
1ED
330
1D4
100
AcDbEntity
  8
0
100
AcDbVertex
100
AcDb2dVertex
 10
231.0509972454451
 20
107.138074079348
 30
0.0
  0
VERTEX
  5
1EE
330
1D4
100
AcDbEntity
  8
0
100
AcDbVertex
100
AcDb2dVertex
 10
231.0504891158484
 20
107.24708019924
 30
0.0
  0
SEQEND
  5
1D7
330
1D4
100
AcDbEntity
  8
0
  0
POLYLINE
  5
1EF
330
75
100
AcDbEntity
  8
0
100
AcDb2dPolyline
 66
     1
 10
0.0
 20
0.0
 30
0.0
 70
   128
  0
VERTEX
  5
1F0
330
1EF
100
AcDbEntity
  8
0
100
AcDbVertex
100
AcDb2dVertex
 10
231.0504891158484
 20
107.24708019924
 30
0.0
  0
VERTEX
  5
1F1
330
1EF
100
AcDbEntity
  8
0
100
AcDbVertex
100
AcDb2dVertex
 10
231.0509972454451
 20
107.356086319132
 30
0.0
  0
VERTEX
  5
1F3
330
1EF
100
AcDbEntity
  8
0
100
AcDbVertex
100
AcDb2dVertex
 10
231.0525174619101
 20
107.4648947378679
 30
0.0
  0
VERTEX
  5
1F4
330
1EF
100
AcDbEntity
  8
0
100
AcDbVertex
100
AcDb2dVertex
 10
231.0550444008254
 20
107.5735482497199
 30
0.0
  0
VERTEX
  5
1F5
330
1EF
100
AcDbEntity
  8
0
100
AcDbVertex
100
AcDb2dVertex
 10
231.0585735918425
 20
107.6820892019256
 30
0.0
  0
VERTEX
  5
1F6
330
1EF
100
AcDbEntity
  8
0
100
AcDbVertex
100
AcDb2dVertex
 10
231.0631005646132
 20
107.7905595226271
 30
0.0
  0
VERTEX
  5
1F7
330
1EF
100
AcDbEntity
  8
0
100
AcDbVertex
100
AcDb2dVertex
 10
231.0686226369284
 20
107.8990008605702
 30
0.0
  0
VERTEX
  5
1F8
330
1EF
100
AcDbEntity
  8
0
100
AcDbVertex
100
AcDb2dVertex
 10
231.0751374246024
 20
108.0074545664771
 30
0.0
  0
VERTEX
  5
1F9
330
1EF
100
AcDbEntity
  8
0
100
AcDbVertex
100
AcDb2dVertex
 10
231.082643437519
 20
108.1159616930468
 30
0.0
  0
VERTEX
  5
1FA
330
1EF
100
AcDbEntity
  8
0
100
AcDbVertex
100
AcDb2dVertex
 10
231.0911394835852
 20
108.2245632184728
 30
0.0
  0
VERTEX
  5
1FB
330
1EF
100
AcDbEntity
  8
0
100
AcDbVertex
100
AcDb2dVertex
 10
231.1006258608244
 20
108.3332999719365
 30
0.0
  0
VERTEX
  5
1FC
330
1EF
100
AcDbEntity
  8
0
100
AcDbVertex
100
AcDb2dVertex
 10
231.1111031652831
 20
108.442212708114
 30
0.0
  0
VERTEX
  5
1FD
330
1EF
100
AcDbEntity
  8
0
100
AcDbVertex
100
AcDb2dVertex
 10
231.1225728870772
 20
108.551342181681
 30
0.0
  0
VERTEX
  5
1FE
330
1EF
100
AcDbEntity
  8
0
100
AcDbVertex
100
AcDb2dVertex
 10
231.1350371123694
 20
108.6607290728076
 30
0.0
  0
VERTEX
  5
1FF
330
1EF
100
AcDbEntity
  8
0
100
AcDbVertex
100
AcDb2dVertex
 10
231.1484988213919
 20
108.7704142851813
 30
0.0
  0
VERTEX
  5
200
330
1EF
100
AcDbEntity
  8
0
100
AcDbVertex
100
AcDb2dVertex
 10
231.1629615904235
 20
108.880438946007
 30
0.0
  0
VERTEX
  5
201
330
1EF
100
AcDbEntity
  8
0
100
AcDbVertex
100
AcDb2dVertex
 10
231.1784301878356
 20
108.9908440334781
 30
0.0
  0
VERTEX
  5
202
330
1EF
100
AcDbEntity
  8
0
100
AcDbVertex
100
AcDb2dVertex
 10
231.1949093819999
 20
109.1016712708457
 30
0.0
  0
VERTEX
  5
203
330
1EF
100
AcDbEntity
  8
0
100
AcDbVertex
100
AcDb2dVertex
 10
231.212405431404
 20
109.2129620833381
 30
0.0
  0
VERTEX
  5
204
330
1EF
100
AcDbEntity
  8
0
100
AcDbVertex
100
AcDb2dVertex
 10
231.2309248925589
 20
109.3247586412414
 30
0.0
  0
VERTEX
  5
205
330
1EF
100
AcDbEntity
  8
0
100
AcDbVertex
100
AcDb2dVertex
 10
231.2504755140685
 20
109.437103412865
 30
0.0
  0
VERTEX
  5
206
330
1EF
100
AcDbEntity
  8
0
100
AcDbVertex
100
AcDb2dVertex
 10
231.2710650445365
 20
109.5500394625647
 30
0.0
  0
VERTEX
  5
207
330
1EF
100
AcDbEntity
  8
0
100
AcDbVertex
100
AcDb2dVertex
 10
231.2927030207061
 20
109.6636100037082
 30
0.0
  0
VERTEX
  5
208
330
1EF
100
AcDbEntity
  8
0
100
AcDbVertex
100
AcDb2dVertex
 10
231.3153992773436
 20
109.7778591437323
 30
0.0
  0
VERTEX
  5
209
330
1EF
100
AcDbEntity
  8
0
100
AcDbVertex
100
AcDb2dVertex
 10
231.339164245262
 20
109.8928314371093
 30
0.0
  0
SEQEND
  5
1F2
330
1EF
100
AcDbEntity
  8
0
  0
LINE
  5
20A
330
75
100
AcDbEntity
  8
0
100
AcDbLine
 10
231.3391641669968
 20
111.7698760192527
 30
0.0
 11
231.3391641669968
 21
109.8928315103046
 31
0.0
  0
POLYLINE
  5
20B
330
75
100
AcDbEntity
  8
0
100
AcDb2dPolyline
 66
     1
 10
0.0
 20
0.0
 30
0.0
 70
   128
  0
VERTEX
  5
20C
330
20B
100
AcDbEntity
  8
0
100
AcDbVertex
100
AcDb2dVertex
 10
231.339164245262
 20
111.7698758764251
 30
0.0
  0
VERTEX
  5
20D
330
20B
100
AcDbEntity
  8
0
100
AcDbVertex
100
AcDb2dVertex
 10
231.3153992773436
 20
111.8273621721251
 30
0.0
  0
VERTEX
  5
20F
330
20B
100
AcDbEntity
  8
0
100
AcDbVertex
100
AcDb2dVertex
 10
231.2927030207061
 20
111.8844866676314
 30
0.0
  0
VERTEX
  5
210
330
20B
100
AcDbEntity
  8
0
100
AcDbVertex
100
AcDb2dVertex
 10
231.2710650445365
 20
111.9412720127089
 30
0.0
  0
VERTEX
  5
211
330
20B
100
AcDbEntity
  8
0
100
AcDbVertex
100
AcDb2dVertex
 10
231.2504755140685
 20
111.997739963053
 30
0.0
  0
VERTEX
  5
212
330
20B
100
AcDbEntity
  8
0
100
AcDbVertex
100
AcDb2dVertex
 10
231.2309248925589
 20
112.0539125723823
 30
0.0
  0
VERTEX
  5
213
330
20B
100
AcDbEntity
  8
0
100
AcDbVertex
100
AcDb2dVertex
 10
231.212405431404
 20
112.1098107023223
 30
0.0
  0
VERTEX
  5
214
330
20B
100
AcDbEntity
  8
0
100
AcDbVertex
100
AcDb2dVertex
 10
231.1949093819999
 20
112.1654561085685
 30
0.0
  0
VERTEX
  5
215
330
20B
100
AcDbEntity
  8
0
100
AcDbVertex
100
AcDb2dVertex
 10
231.1784301878356
 20
112.2208696527465
 30
0.0
  0
VERTEX
  5
216
330
20B
100
AcDbEntity
  8
0
100
AcDbVertex
100
AcDb2dVertex
 10
231.1629615904235
 20
112.2760724945052
 30
0.0
  0
VERTEX
  5
217
330
20B
100
AcDbEntity
  8
0
100
AcDbVertex
100
AcDb2dVertex
 10
231.1484988213919
 20
112.3310846014007
 30
0.0
  0
VERTEX
  5
218
330
20B
100
AcDbEntity
  8
0
100
AcDbVertex
100
AcDb2dVertex
 10
231.1350371123694
 20
112.3859274311049
 30
0.0
  0
VERTEX
  5
219
330
20B
100
AcDbEntity
  8
0
100
AcDbVertex
100
AcDb2dVertex
 10
231.1225728870772
 20
112.4406206531508
 30
0.0
  0
VERTEX
  5
21A
330
20B
100
AcDbEntity
  8
0
100
AcDbVertex
100
AcDb2dVertex
 10
231.1111031652831
 20
112.4951857252105
 30
0.0
  0
VERTEX
  5
21B
330
20B
100
AcDbEntity
  8
0
100
AcDbVertex
100
AcDb2dVertex
 10
231.1006258608244
 20
112.5496417207701
 30
0.0
  0
VERTEX
  5
21C
330
20B
100
AcDbEntity
  8
0
100
AcDbVertex
100
AcDb2dVertex
 10
231.0911394835852
 20
112.604010097502
 30
0.0
  0
VERTEX
  5
21D
330
20B
100
AcDbEntity
  8
0
100
AcDbVertex
100
AcDb2dVertex
 10
231.082643437519
 20
112.6583111209853
 30
0.0
  0
VERTEX
  5
21E
330
20B
100
AcDbEntity
  8
0
100
AcDbVertex
100
AcDb2dVertex
 10
231.0751374246024
 20
112.7125644607528
 30
0.0
  0
VERTEX
  5
21F
330
20B
100
AcDbEntity
  8
0
100
AcDbVertex
100
AcDb2dVertex
 10
231.0686226369284
 20
112.7667915744765
 30
0.0
  0
VERTEX
  5
220
330
20B
100
AcDbEntity
  8
0
100
AcDbVertex
100
AcDb2dVertex
 10
231.0631005646132
 20
112.8210121316894
 30
0.0
  0
VERTEX
  5
221
330
20B
100
AcDbEntity
  8
0
100
AcDbVertex
100
AcDb2dVertex
 10
231.0585735918425
 20
112.8752469940169
 30
0.0
  0
VERTEX
  5
222
330
20B
100
AcDbEntity
  8
0
100
AcDbVertex
100
AcDb2dVertex
 10
231.0550444008254
 20
112.9295176191314
 30
0.0
  0
VERTEX
  5
223
330
20B
100
AcDbEntity
  8
0
100
AcDbVertex
100
AcDb2dVertex
 10
231.0525174619101
 20
112.9838442726119
 30
0.0
  0
VERTEX
  5
224
330
20B
100
AcDbEntity
  8
0
100
AcDbVertex
100
AcDb2dVertex
 10
231.0509972454451
 20
113.0382484121306
 30
0.0
  0
VERTEX
  5
225
330
20B
100
AcDbEntity
  8
0
100
AcDbVertex
100
AcDb2dVertex
 10
231.0504891158484
 20
113.0927514953597
 30
0.0
  0
SEQEND
  5
20E
330
20B
100
AcDbEntity
  8
0
  0
POLYLINE
  5
226
330
75
100
AcDbEntity
  8
0
100
AcDb2dPolyline
 66
     1
 10
0.0
 20
0.0
 30
0.0
 70
   128
  0
VERTEX
  5
227
330
226
100
AcDbEntity
  8
0
100
AcDbVertex
100
AcDb2dVertex
 10
236.6118137718581
 20
114.4156271142943
 30
0.0
  0
VERTEX
  5
228
330
226
100
AcDbEntity
  8
0
100
AcDbVertex
100
AcDb2dVertex
 10
236.6355793358229
 20
114.3581414146407
 30
0.0
  0
VERTEX
  5
22A
330
226
100
AcDbEntity
  8
0
100
AcDbVertex
100
AcDb2dVertex
 10
236.6582755924605
 20
114.301016323088
 30
0.0
  0
VERTEX
  5
22B
330
226
100
AcDbEntity
  8
0
100
AcDbVertex
100
AcDb2dVertex
 10
236.679913270607
 20
114.2442315740569
 30
0.0
  0
VERTEX
  5
22C
330
226
100
AcDbEntity
  8
0
100
AcDbVertex
100
AcDb2dVertex
 10
236.7005030990981
 20
114.1877633256896
 30
0.0
  0
VERTEX
  5
22D
330
226
100
AcDbEntity
  8
0
100
AcDbVertex
100
AcDb2dVertex
 10
236.7200534225844
 20
114.1315907163604
 30
0.0
  0
VERTEX
  5
22E
330
226
100
AcDbEntity
  8
0
100
AcDbVertex
100
AcDb2dVertex
 10
236.7385725857161
 20
114.0756928844436
 30
0.0
  0
VERTEX
  5
22F
330
226
100
AcDbEntity
  8
0
100
AcDbVertex
100
AcDb2dVertex
 10
236.7560689331435
 20
114.0200471801741
 30
0.0
  0
VERTEX
  5
230
330
226
100
AcDbEntity
  8
0
100
AcDbVertex
100
AcDb2dVertex
 10
236.772548425331
 20
113.9646333379729
 30
0.0
  0
VERTEX
  5
231
330
226
100
AcDbEntity
  8
0
100
AcDbVertex
100
AcDb2dVertex
 10
236.7880170227431
 20
113.9094310922606
 30
0.0
  0
VERTEX
  5
232
330
226
100
AcDbEntity
  8
0
100
AcDbVertex
100
AcDb2dVertex
 10
236.8024794937514
 20
113.8544189853652
 30
0.0
  0
VERTEX
  5
233
330
226
100
AcDbEntity
  8
0
100
AcDbVertex
100
AcDb2dVertex
 10
236.8159406067275
 20
113.7995761556609
 30
0.0
  0
VERTEX
  5
234
330
226
100
AcDbEntity
  8
0
100
AcDbVertex
100
AcDb2dVertex
 10
236.8284051300429
 20
113.744882933615
 30
0.0
  0
VERTEX
  5
235
330
226
100
AcDbEntity
  8
0
100
AcDbVertex
100
AcDb2dVertex
 10
236.8398754478835
 20
113.6903178615554
 30
0.0
  0
VERTEX
  5
236
330
226
100
AcDbEntity
  8
0
100
AcDbVertex
100
AcDb2dVertex
 10
236.8503527523421
 20
113.6358612699492
 30
0.0
  0
VERTEX
  5
237
330
226
100
AcDbEntity
  8
0
100
AcDbVertex
100
AcDb2dVertex
 10
236.8598382355116
 20
113.5814928932174
 30
0.0
  0
VERTEX
  5
238
330
226
100
AcDbEntity
  8
0
100
AcDbVertex
100
AcDb2dVertex
 10
236.868334281578
 20
113.5271924657805
 30
0.0
  0
VERTEX
  5
239
330
226
100
AcDbEntity
  8
0
100
AcDbVertex
100
AcDb2dVertex
 10
236.875840890541
 20
113.4729391260131
 30
0.0
  0
VERTEX
  5
23A
330
226
100
AcDbEntity
  8
0
100
AcDbVertex
100
AcDb2dVertex
 10
236.8823556782149
 20
113.4187120122893
 30
0.0
  0
VERTEX
  5
23B
330
226
100
AcDbEntity
  8
0
100
AcDbVertex
100
AcDb2dVertex
 10
236.8878774525069
 20
113.3644914550765
 30
0.0
  0
VERTEX
  5
23C
330
226
100
AcDbEntity
  8
0
100
AcDbVertex
100
AcDb2dVertex
 10
236.892405021324
 20
113.3102559967025
 30
0.0
  0
VERTEX
  5
23D
330
226
100
AcDbEntity
  8
0
100
AcDbVertex
100
AcDb2dVertex
 10
236.8959336162947
 20
113.2559859676345
 30
0.0
  0
VERTEX
  5
23E
330
226
100
AcDbEntity
  8
0
100
AcDbVertex
100
AcDb2dVertex
 10
236.8984608532332
 20
113.2016587181075
 30
0.0
  0
VERTEX
  5
23F
330
226
100
AcDbEntity
  8
0
100
AcDbVertex
100
AcDb2dVertex
 10
236.899980771675
 20
113.1472545785888
 30
0.0
  0
VERTEX
  5
240
330
226
100
AcDbEntity
  8
0
100
AcDbVertex
100
AcDb2dVertex
 10
236.9004886032485
 20
113.0927514953597
 30
0.0
  0
SEQEND
  5
229
330
226
100
AcDbEntity
  8
0
  0
LINE
  5
241
330
75
100
AcDbEntity
  8
0
100
AcDbLine
 10
236.9004890324019
 20
113.092751674785
 30
0.0
 11
236.9004890324019
 21
113.7422707276233
 31
0.0
  0
LINE
  5
242
330
75
100
AcDbEntity
  8
0
100
AcDbLine
 10
236.6118138978071
 20
114.4156273303173
 30
0.0
 11
236.6118138978071
 21
114.49708019924
 31
0.0
  0
POLYLINE
  5
243
330
75
100
AcDbEntity
  8
0
100
AcDb2dPolyline
 66
     1
 10
0.0
 20
0.0
 30
0.0
 70
   128
  0
VERTEX
  5
244
330
243
100
AcDbEntity
  8
0
100
AcDbVertex
100
AcDb2dVertex
 10
236.6118137718581
 20
109.8928314371093
 30
0.0
  0
VERTEX
  5
245
330
243
100
AcDbEntity
  8
0
100
AcDbVertex
100
AcDb2dVertex
 10
236.6355793358229
 20
109.7778591437323
 30
0.0
  0
VERTEX
  5
247
330
243
100
AcDbEntity
  8
0
100
AcDbVertex
100
AcDb2dVertex
 10
236.6582755924605
 20
109.6636100037082
 30
0.0
  0
VERTEX
  5
248
330
243
100
AcDbEntity
  8
0
100
AcDbVertex
100
AcDb2dVertex
 10
236.679913270607
 20
109.5500394625647
 30
0.0
  0
VERTEX
  5
249
330
243
100
AcDbEntity
  8
0
100
AcDbVertex
100
AcDb2dVertex
 10
236.7005030990981
 20
109.437103412865
 30
0.0
  0
VERTEX
  5
24A
330
243
100
AcDbEntity
  8
0
100
AcDbVertex
100
AcDb2dVertex
 10
236.7200534225844
 20
109.3247586412414
 30
0.0
  0
VERTEX
  5
24B
330
243
100
AcDbEntity
  8
0
100
AcDbVertex
100
AcDb2dVertex
 10
236.7385725857161
 20
109.2129620833381
 30
0.0
  0
VERTEX
  5
24C
330
243
100
AcDbEntity
  8
0
100
AcDbVertex
100
AcDb2dVertex
 10
236.7560689331435
 20
109.1016712708457
 30
0.0
  0
VERTEX
  5
24D
330
243
100
AcDbEntity
  8
0
100
AcDbVertex
100
AcDb2dVertex
 10
236.772548425331
 20
108.9908440334781
 30
0.0
  0
VERTEX
  5
24E
330
243
100
AcDbEntity
  8
0
100
AcDbVertex
100
AcDb2dVertex
 10
236.7880170227431
 20
108.880438946007
 30
0.0
  0
VERTEX
  5
24F
330
243
100
AcDbEntity
  8
0
100
AcDbVertex
100
AcDb2dVertex
 10
236.8024794937514
 20
108.7704142851813
 30
0.0
  0
VERTEX
  5
250
330
243
100
AcDbEntity
  8
0
100
AcDbVertex
100
AcDb2dVertex
 10
236.8159406067275
 20
108.6607290728076
 30
0.0
  0
VERTEX
  5
251
330
243
100
AcDbEntity
  8
0
100
AcDbVertex
100
AcDb2dVertex
 10
236.8284051300429
 20
108.551342181681
 30
0.0
  0
VERTEX
  5
252
330
243
100
AcDbEntity
  8
0
100
AcDbVertex
100
AcDb2dVertex
 10
236.8398754478835
 20
108.442212708114
 30
0.0
  0
VERTEX
  5
253
330
243
100
AcDbEntity
  8
0
100
AcDbVertex
100
AcDb2dVertex
 10
236.8503527523421
 20
108.3332999719365
 30
0.0
  0
VERTEX
  5
254
330
243
100
AcDbEntity
  8
0
100
AcDbVertex
100
AcDb2dVertex
 10
236.8598382355116
 20
108.2245632184728
 30
0.0
  0
VERTEX
  5
255
330
243
100
AcDbEntity
  8
0
100
AcDbVertex
100
AcDb2dVertex
 10
236.868334281578
 20
108.1159616930468
 30
0.0
  0
VERTEX
  5
256
330
243
100
AcDbEntity
  8
0
100
AcDbVertex
100
AcDb2dVertex
 10
236.875840890541
 20
108.0074545664771
 30
0.0
  0
VERTEX
  5
257
330
243
100
AcDbEntity
  8
0
100
AcDbVertex
100
AcDb2dVertex
 10
236.8823556782149
 20
107.8990008605702
 30
0.0
  0
VERTEX
  5
258
330
243
100
AcDbEntity
  8
0
100
AcDbVertex
100
AcDb2dVertex
 10
236.8878774525069
 20
107.7905595226271
 30
0.0
  0
VERTEX
  5
259
330
243
100
AcDbEntity
  8
0
100
AcDbVertex
100
AcDb2dVertex
 10
236.892405021324
 20
107.6820892019256
 30
0.0
  0
VERTEX
  5
25A
330
243
100
AcDbEntity
  8
0
100
AcDbVertex
100
AcDb2dVertex
 10
236.8959336162947
 20
107.5735482497199
 30
0.0
  0
VERTEX
  5
25B
330
243
100
AcDbEntity
  8
0
100
AcDbVertex
100
AcDb2dVertex
 10
236.8984608532332
 20
107.4648947378679
 30
0.0
  0
VERTEX
  5
25C
330
243
100
AcDbEntity
  8
0
100
AcDbVertex
100
AcDb2dVertex
 10
236.899980771675
 20
107.356086319132
 30
0.0
  0
VERTEX
  5
25D
330
243
100
AcDbEntity
  8
0
100
AcDbVertex
100
AcDb2dVertex
 10
236.9004886032485
 20
107.24708019924
 30
0.0
  0
SEQEND
  5
246
330
243
100
AcDbEntity
  8
0
  0
LINE
  5
25E
330
75
100
AcDbEntity
  8
0
100
AcDbLine
 10
236.9004890324019
 20
107.24708019924
 30
0.0
 11
236.9004890324019
 21
108.9036852057619
 31
0.0
  0
LINE
  5
25F
330
75
100
AcDbEntity
  8
0
100
AcDbLine
 10
236.9004890324019
 20
112.0856657211014
 30
0.0
 11
236.9004890324019
 21
113.092751674785
 31
0.0
  0
POLYLINE
  5
260
330
75
100
AcDbEntity
  8
0
100
AcDb2dPolyline
 66
     1
 10
0.0
 20
0.0
 30
0.0
 70
   128
  0
VERTEX
  5
261
330
260
100
AcDbEntity
  8
0
100
AcDbVertex
100
AcDb2dVertex
 10
236.9004886032485
 20
113.0927514953597
 30
0.0
  0
VERTEX
  5
262
330
260
100
AcDbEntity
  8
0
100
AcDbVertex
100
AcDb2dVertex
 10
236.899980771675
 20
113.0382484121306
 30
0.0
  0
VERTEX
  5
264
330
260
100
AcDbEntity
  8
0
100
AcDbVertex
100
AcDb2dVertex
 10
236.8984608532332
 20
112.9838442726119
 30
0.0
  0
VERTEX
  5
265
330
260
100
AcDbEntity
  8
0
100
AcDbVertex
100
AcDb2dVertex
 10
236.8959336162947
 20
112.9295176191314
 30
0.0
  0
VERTEX
  5
266
330
260
100
AcDbEntity
  8
0
100
AcDbVertex
100
AcDb2dVertex
 10
236.892405021324
 20
112.8752469940169
 30
0.0
  0
VERTEX
  5
267
330
260
100
AcDbEntity
  8
0
100
AcDbVertex
100
AcDb2dVertex
 10
236.8878774525069
 20
112.8210121316894
 30
0.0
  0
VERTEX
  5
268
330
260
100
AcDbEntity
  8
0
100
AcDbVertex
100
AcDb2dVertex
 10
236.8823556782149
 20
112.7667915744765
 30
0.0
  0
VERTEX
  5
269
330
260
100
AcDbEntity
  8
0
100
AcDbVertex
100
AcDb2dVertex
 10
236.875840890541
 20
112.7125644607528
 30
0.0
  0
VERTEX
  5
26A
330
260
100
AcDbEntity
  8
0
100
AcDbVertex
100
AcDb2dVertex
 10
236.868334281578
 20
112.6583111209853
 30
0.0
  0
VERTEX
  5
26B
330
260
100
AcDbEntity
  8
0
100
AcDbVertex
100
AcDb2dVertex
 10
236.8598382355116
 20
112.604010097502
 30
0.0
  0
VERTEX
  5
26C
330
260
100
AcDbEntity
  8
0
100
AcDbVertex
100
AcDb2dVertex
 10
236.8503527523421
 20
112.5496417207701
 30
0.0
  0
VERTEX
  5
26D
330
260
100
AcDbEntity
  8
0
100
AcDbVertex
100
AcDb2dVertex
 10
236.8398754478835
 20
112.4951857252105
 30
0.0
  0
VERTEX
  5
26E
330
260
100
AcDbEntity
  8
0
100
AcDbVertex
100
AcDb2dVertex
 10
236.8284051300429
 20
112.4406206531508
 30
0.0
  0
VERTEX
  5
26F
330
260
100
AcDbEntity
  8
0
100
AcDbVertex
100
AcDb2dVertex
 10
236.8159406067275
 20
112.3859274311049
 30
0.0
  0
VERTEX
  5
270
330
260
100
AcDbEntity
  8
0
100
AcDbVertex
100
AcDb2dVertex
 10
236.8024794937514
 20
112.3310846014007
 30
0.0
  0
VERTEX
  5
271
330
260
100
AcDbEntity
  8
0
100
AcDbVertex
100
AcDb2dVertex
 10
236.7880170227431
 20
112.2760724945052
 30
0.0
  0
VERTEX
  5
272
330
260
100
AcDbEntity
  8
0
100
AcDbVertex
100
AcDb2dVertex
 10
236.772548425331
 20
112.2208696527465
 30
0.0
  0
VERTEX
  5
273
330
260
100
AcDbEntity
  8
0
100
AcDbVertex
100
AcDb2dVertex
 10
236.7560689331435
 20
112.1654561085685
 30
0.0
  0
VERTEX
  5
274
330
260
100
AcDbEntity
  8
0
100
AcDbVertex
100
AcDb2dVertex
 10
236.7385725857161
 20
112.1098107023223
 30
0.0
  0
VERTEX
  5
275
330
260
100
AcDbEntity
  8
0
100
AcDbVertex
100
AcDb2dVertex
 10
236.7200534225844
 20
112.0539125723823
 30
0.0
  0
VERTEX
  5
276
330
260
100
AcDbEntity
  8
0
100
AcDbVertex
100
AcDb2dVertex
 10
236.7005030990981
 20
111.997739963053
 30
0.0
  0
VERTEX
  5
277
330
260
100
AcDbEntity
  8
0
100
AcDbVertex
100
AcDb2dVertex
 10
236.679913270607
 20
111.9412720127089
 30
0.0
  0
VERTEX
  5
278
330
260
100
AcDbEntity
  8
0
100
AcDbVertex
100
AcDb2dVertex
 10
236.6582755924605
 20
111.8844866676314
 30
0.0
  0
VERTEX
  5
279
330
260
100
AcDbEntity
  8
0
100
AcDbVertex
100
AcDb2dVertex
 10
236.6355793358229
 20
111.8273621721251
 30
0.0
  0
VERTEX
  5
27A
330
260
100
AcDbEntity
  8
0
100
AcDbVertex
100
AcDb2dVertex
 10
236.6118137718581
 20
111.7698758764251
 30
0.0
  0
SEQEND
  5
263
330
260
100
AcDbEntity
  8
0
  0
LINE
  5
27B
330
75
100
AcDbEntity
  8
0
100
AcDbLine
 10
236.6118138978071
 20
109.8928315103046
 30
0.0
 11
236.6118138978071
 21
111.7698760192527
 31
0.0
  0
POLYLINE
  5
27C
330
75
100
AcDbEntity
  8
0
100
AcDb2dPolyline
 66
     1
 10
0.0
 20
0.0
 30
0.0
 70
   128
  0
VERTEX
  5
27D
330
27C
100
AcDbEntity
  8
0
100
AcDbVertex
100
AcDb2dVertex
 10
236.6118137718581
 20
102.7242845220549
 30
0.0
  0
VERTEX
  5
27E
330
27C
100
AcDbEntity
  8
0
100
AcDbVertex
100
AcDb2dVertex
 10
236.6355793358229
 20
102.6667982263549
 30
0.0
  0
VERTEX
  5
280
330
27C
100
AcDbEntity
  8
0
100
AcDbVertex
100
AcDb2dVertex
 10
236.6582755924605
 20
102.6096737308486
 30
0.0
  0
VERTEX
  5
281
330
27C
100
AcDbEntity
  8
0
100
AcDbVertex
100
AcDb2dVertex
 10
236.679913270607
 20
102.5528883857711
 30
0.0
  0
VERTEX
  5
282
330
27C
100
AcDbEntity
  8
0
100
AcDbVertex
100
AcDb2dVertex
 10
236.7005030990981
 20
102.496420435427
 30
0.0
  0
VERTEX
  5
283
330
27C
100
AcDbEntity
  8
0
100
AcDbVertex
100
AcDb2dVertex
 10
236.7200534225844
 20
102.4402478260978
 30
0.0
  0
VERTEX
  5
284
330
27C
100
AcDbEntity
  8
0
100
AcDbVertex
100
AcDb2dVertex
 10
236.7385725857161
 20
102.3843496961577
 30
0.0
  0
VERTEX
  5
285
330
27C
100
AcDbEntity
  8
0
100
AcDbVertex
100
AcDb2dVertex
 10
236.7560689331435
 20
102.3287042899115
 30
0.0
  0
VERTEX
  5
286
330
27C
100
AcDbEntity
  8
0
100
AcDbVertex
100
AcDb2dVertex
 10
236.772548425331
 20
102.2732907457335
 30
0.0
  0
VERTEX
  5
287
330
27C
100
AcDbEntity
  8
0
100
AcDbVertex
100
AcDb2dVertex
 10
236.7880170227431
 20
102.2180879039748
 30
0.0
  0
VERTEX
  5
288
330
27C
100
AcDbEntity
  8
0
100
AcDbVertex
100
AcDb2dVertex
 10
236.8024794937514
 20
102.1630757970794
 30
0.0
  0
VERTEX
  5
289
330
27C
100
AcDbEntity
  8
0
100
AcDbVertex
100
AcDb2dVertex
 10
236.8159406067275
 20
102.1082329673751
 30
0.0
  0
VERTEX
  5
28A
330
27C
100
AcDbEntity
  8
0
100
AcDbVertex
100
AcDb2dVertex
 10
236.8284051300429
 20
102.0535397453292
 30
0.0
  0
VERTEX
  5
28B
330
27C
100
AcDbEntity
  8
0
100
AcDbVertex
100
AcDb2dVertex
 10
236.8398754478835
 20
101.9989746732695
 30
0.0
  0
VERTEX
  5
28C
330
27C
100
AcDbEntity
  8
0
100
AcDbVertex
100
AcDb2dVertex
 10
236.8503527523421
 20
101.9445186777099
 30
0.0
  0
VERTEX
  5
28D
330
27C
100
AcDbEntity
  8
0
100
AcDbVertex
100
AcDb2dVertex
 10
236.8598382355116
 20
101.890150300978
 30
0.0
  0
VERTEX
  5
28E
330
27C
100
AcDbEntity
  8
0
100
AcDbVertex
100
AcDb2dVertex
 10
236.868334281578
 20
101.8358492774947
 30
0.0
  0
VERTEX
  5
28F
330
27C
100
AcDbEntity
  8
0
100
AcDbVertex
100
AcDb2dVertex
 10
236.875840890541
 20
101.7815959377273
 30
0.0
  0
VERTEX
  5
290
330
27C
100
AcDbEntity
  8
0
100
AcDbVertex
100
AcDb2dVertex
 10
236.8823556782149
 20
101.7273688240035
 30
0.0
  0
VERTEX
  5
291
330
27C
100
AcDbEntity
  8
0
100
AcDbVertex
100
AcDb2dVertex
 10
236.8878774525069
 20
101.6731482667907
 30
0.0
  0
VERTEX
  5
292
330
27C
100
AcDbEntity
  8
0
100
AcDbVertex
100
AcDb2dVertex
 10
236.892405021324
 20
101.6189134044631
 30
0.0
  0
VERTEX
  5
293
330
27C
100
AcDbEntity
  8
0
100
AcDbVertex
100
AcDb2dVertex
 10
236.8959336162947
 20
101.5646427793486
 30
0.0
  0
VERTEX
  5
294
330
27C
100
AcDbEntity
  8
0
100
AcDbVertex
100
AcDb2dVertex
 10
236.8984608532332
 20
101.5103161258681
 30
0.0
  0
VERTEX
  5
295
330
27C
100
AcDbEntity
  8
0
100
AcDbVertex
100
AcDb2dVertex
 10
236.899980771675
 20
101.4559119863494
 30
0.0
  0
VERTEX
  5
296
330
27C
100
AcDbEntity
  8
0
100
AcDbVertex
100
AcDb2dVertex
 10
236.9004886032485
 20
101.4014089031203
 30
0.0
  0
SEQEND
  5
27F
330
27C
100
AcDbEntity
  8
0
  0
LINE
  5
297
330
75
100
AcDbEntity
  8
0
100
AcDbLine
 10
236.9004890324019
 20
101.401408723695
 30
0.0
 11
236.9004890324019
 21
102.4084946773786
 31
0.0
  0
LINE
  5
298
330
75
100
AcDbEntity
  8
0
100
AcDbLine
 10
236.9004890324019
 20
105.5904751927181
 30
0.0
 11
236.9004890324019
 21
107.24708019924
 31
0.0
  0
POLYLINE
  5
299
330
75
100
AcDbEntity
  8
0
100
AcDb2dPolyline
 66
     1
 10
0.0
 20
0.0
 30
0.0
 70
   128
  0
VERTEX
  5
29A
330
299
100
AcDbEntity
  8
0
100
AcDbVertex
100
AcDb2dVertex
 10
236.9004886032485
 20
107.24708019924
 30
0.0
  0
VERTEX
  5
29B
330
299
100
AcDbEntity
  8
0
100
AcDbVertex
100
AcDb2dVertex
 10
236.899980771675
 20
107.138074079348
 30
0.0
  0
VERTEX
  5
29D
330
299
100
AcDbEntity
  8
0
100
AcDbVertex
100
AcDb2dVertex
 10
236.8984608532332
 20
107.0292656606121
 30
0.0
  0
VERTEX
  5
29E
330
299
100
AcDbEntity
  8
0
100
AcDbVertex
100
AcDb2dVertex
 10
236.8959336162947
 20
106.9206121487601
 30
0.0
  0
VERTEX
  5
29F
330
299
100
AcDbEntity
  8
0
100
AcDbVertex
100
AcDb2dVertex
 10
236.892405021324
 20
106.8120711965545
 30
0.0
  0
VERTEX
  5
2A0
330
299
100
AcDbEntity
  8
0
100
AcDbVertex
100
AcDb2dVertex
 10
236.8878774525069
 20
106.7036008758529
 30
0.0
  0
VERTEX
  5
2A1
330
299
100
AcDbEntity
  8
0
100
AcDbVertex
100
AcDb2dVertex
 10
236.8823556782149
 20
106.5951595379098
 30
0.0
  0
VERTEX
  5
2A2
330
299
100
AcDbEntity
  8
0
100
AcDbVertex
100
AcDb2dVertex
 10
236.875840890541
 20
106.4867058320029
 30
0.0
  0
VERTEX
  5
2A3
330
299
100
AcDbEntity
  8
0
100
AcDbVertex
100
AcDb2dVertex
 10
236.868334281578
 20
106.3781987054332
 30
0.0
  0
VERTEX
  5
2A4
330
299
100
AcDbEntity
  8
0
100
AcDbVertex
100
AcDb2dVertex
 10
236.8598382355116
 20
106.2695971800073
 30
0.0
  0
VERTEX
  5
2A5
330
299
100
AcDbEntity
  8
0
100
AcDbVertex
100
AcDb2dVertex
 10
236.8503527523421
 20
106.1608604265435
 30
0.0
  0
VERTEX
  5
2A6
330
299
100
AcDbEntity
  8
0
100
AcDbVertex
100
AcDb2dVertex
 10
236.8398754478835
 20
106.0519476903661
 30
0.0
  0
VERTEX
  5
2A7
330
299
100
AcDbEntity
  8
0
100
AcDbVertex
100
AcDb2dVertex
 10
236.8284051300429
 20
105.9428182167991
 30
0.0
  0
VERTEX
  5
2A8
330
299
100
AcDbEntity
  8
0
100
AcDbVertex
100
AcDb2dVertex
 10
236.8159406067275
 20
105.8334313256724
 30
0.0
  0
VERTEX
  5
2A9
330
299
100
AcDbEntity
  8
0
100
AcDbVertex
100
AcDb2dVertex
 10
236.8024794937514
 20
105.7237461132987
 30
0.0
  0
VERTEX
  5
2AA
330
299
100
AcDbEntity
  8
0
100
AcDbVertex
100
AcDb2dVertex
 10
236.7880170227431
 20
105.613721452473
 30
0.0
  0
VERTEX
  5
2AB
330
299
100
AcDbEntity
  8
0
100
AcDbVertex
100
AcDb2dVertex
 10
236.772548425331
 20
105.503316365002
 30
0.0
  0
VERTEX
  5
2AC
330
299
100
AcDbEntity
  8
0
100
AcDbVertex
100
AcDb2dVertex
 10
236.7560689331435
 20
105.3924891276343
 30
0.0
  0
VERTEX
  5
2AD
330
299
100
AcDbEntity
  8
0
100
AcDbVertex
100
AcDb2dVertex
 10
236.7385725857161
 20
105.2811983151419
 30
0.0
  0
VERTEX
  5
2AE
330
299
100
AcDbEntity
  8
0
100
AcDbVertex
100
AcDb2dVertex
 10
236.7200534225844
 20
105.1694017572387
 30
0.0
  0
VERTEX
  5
2AF
330
299
100
AcDbEntity
  8
0
100
AcDbVertex
100
AcDb2dVertex
 10
236.7005030990981
 20
105.057056985615
 30
0.0
  0
VERTEX
  5
2B0
330
299
100
AcDbEntity
  8
0
100
AcDbVertex
100
AcDb2dVertex
 10
236.679913270607
 20
104.9441209359153
 30
0.0
  0
VERTEX
  5
2B1
330
299
100
AcDbEntity
  8
0
100
AcDbVertex
100
AcDb2dVertex
 10
236.6582755924605
 20
104.8305503947718
 30
0.0
  0
VERTEX
  5
2B2
330
299
100
AcDbEntity
  8
0
100
AcDbVertex
100
AcDb2dVertex
 10
236.6355793358229
 20
104.7163012547477
 30
0.0
  0
VERTEX
  5
2B3
330
299
100
AcDbEntity
  8
0
100
AcDbVertex
100
AcDb2dVertex
 10
236.6118137718581
 20
104.6013289613707
 30
0.0
  0
SEQEND
  5
29C
330
299
100
AcDbEntity
  8
0
  0
LINE
  5
2B4
330
75
100
AcDbEntity
  8
0
100
AcDbLine
 10
236.6118138978071
 20
102.7242843792273
 30
0.0
 11
236.6118138978071
 21
104.6013288881754
 31
0.0
  0
POLYLINE
  5
2B5
330
75
100
AcDbEntity
  8
0
100
AcDb2dPolyline
 66
     1
 10
0.0
 20
0.0
 30
0.0
 70
   128
  0
VERTEX
  5
2B6
330
2B5
100
AcDbEntity
  8
0
100
AcDbVertex
100
AcDb2dVertex
 10
236.9004886032485
 20
101.4014089031203
 30
0.0
  0
VERTEX
  5
2B7
330
2B5
100
AcDbEntity
  8
0
100
AcDbVertex
100
AcDb2dVertex
 10
236.899980771675
 20
101.3469058198912
 30
0.0
  0
VERTEX
  5
2B9
330
2B5
100
AcDbEntity
  8
0
100
AcDbVertex
100
AcDb2dVertex
 10
236.8984608532332
 20
101.2925016803725
 30
0.0
  0
VERTEX
  5
2BA
330
2B5
100
AcDbEntity
  8
0
100
AcDbVertex
100
AcDb2dVertex
 10
236.8959336162947
 20
101.2381744308455
 30
0.0
  0
VERTEX
  5
2BB
330
2B5
100
AcDbEntity
  8
0
100
AcDbVertex
100
AcDb2dVertex
 10
236.892405021324
 20
101.1839044017776
 30
0.0
  0
VERTEX
  5
2BC
330
2B5
100
AcDbEntity
  8
0
100
AcDbVertex
100
AcDb2dVertex
 10
236.8878774525069
 20
101.1296689434035
 30
0.0
  0
VERTEX
  5
2BD
330
2B5
100
AcDbEntity
  8
0
100
AcDbVertex
100
AcDb2dVertex
 10
236.8823556782149
 20
101.0754483861907
 30
0.0
  0
VERTEX
  5
2BE
330
2B5
100
AcDbEntity
  8
0
100
AcDbVertex
100
AcDb2dVertex
 10
236.875840890541
 20
101.0212212724669
 30
0.0
  0
VERTEX
  5
2BF
330
2B5
100
AcDbEntity
  8
0
100
AcDbVertex
100
AcDb2dVertex
 10
236.868334281578
 20
100.9669679326995
 30
0.0
  0
VERTEX
  5
2C0
330
2B5
100
AcDbEntity
  8
0
100
AcDbVertex
100
AcDb2dVertex
 10
236.8598382355116
 20
100.9126675052627
 30
0.0
  0
VERTEX
  5
2C1
330
2B5
100
AcDbEntity
  8
0
100
AcDbVertex
100
AcDb2dVertex
 10
236.8503527523421
 20
100.8582991285308
 30
0.0
  0
VERTEX
  5
2C2
330
2B5
100
AcDbEntity
  8
0
100
AcDbVertex
100
AcDb2dVertex
 10
236.8398754478835
 20
100.8038425369246
 30
0.0
  0
VERTEX
  5
2C3
330
2B5
100
AcDbEntity
  8
0
100
AcDbVertex
100
AcDb2dVertex
 10
236.8284051300429
 20
100.749277464865
 30
0.0
  0
VERTEX
  5
2C4
330
2B5
100
AcDbEntity
  8
0
100
AcDbVertex
100
AcDb2dVertex
 10
236.8159406067275
 20
100.6945842428191
 30
0.0
  0
VERTEX
  5
2C5
330
2B5
100
AcDbEntity
  8
0
100
AcDbVertex
100
AcDb2dVertex
 10
236.8024794937514
 20
100.6397414131148
 30
0.0
  0
VERTEX
  5
2C6
330
2B5
100
AcDbEntity
  8
0
100
AcDbVertex
100
AcDb2dVertex
 10
236.7880170227431
 20
100.5847293062194
 30
0.0
  0
VERTEX
  5
2C7
330
2B5
100
AcDbEntity
  8
0
100
AcDbVertex
100
AcDb2dVertex
 10
236.772548425331
 20
100.5295270605071
 30
0.0
  0
VERTEX
  5
2C8
330
2B5
100
AcDbEntity
  8
0
100
AcDbVertex
100
AcDb2dVertex
 10
236.7560689331435
 20
100.4741132183059
 30
0.0
  0
VERTEX
  5
2C9
330
2B5
100
AcDbEntity
  8
0
100
AcDbVertex
100
AcDb2dVertex
 10
236.7385725857161
 20
100.4184675140365
 30
0.0
  0
VERTEX
  5
2CA
330
2B5
100
AcDbEntity
  8
0
100
AcDbVertex
100
AcDb2dVertex
 10
236.7200534225844
 20
100.3625696821196
 30
0.0
  0
VERTEX
  5
2CB
330
2B5
100
AcDbEntity
  8
0
100
AcDbVertex
100
AcDb2dVertex
 10
236.7005030990981
 20
100.3063970727904
 30
0.0
  0
VERTEX
  5
2CC
330
2B5
100
AcDbEntity
  8
0
100
AcDbVertex
100
AcDb2dVertex
 10
236.679913270607
 20
100.249928824423
 30
0.0
  0
VERTEX
  5
2CD
330
2B5
100
AcDbEntity
  8
0
100
AcDbVertex
100
AcDb2dVertex
 10
236.6582755924605
 20
100.1931440753921
 30
0.0
  0
VERTEX
  5
2CE
330
2B5
100
AcDbEntity
  8
0
100
AcDbVertex
100
AcDb2dVertex
 10
236.6355793358229
 20
100.1360189838393
 30
0.0
  0
VERTEX
  5
2CF
330
2B5
100
AcDbEntity
  8
0
100
AcDbVertex
100
AcDb2dVertex
 10
236.6118137718581
 20
100.0785332841857
 30
0.0
  0
SEQEND
  5
2B8
330
2B5
100
AcDbEntity
  8
0
  0
LINE
  5
2D0
330
75
100
AcDbEntity
  8
0
100
AcDbLine
 10
236.6118138978071
 20
99.99708019924007
 30
0.0
 11
236.6118138978071
 21
100.0785330681628
 31
0.0
  0
LINE
  5
2D1
330
75
100
AcDbEntity
  8
0
100
AcDbLine
 10
236.9004890324019
 20
100.7518896708567
 30
0.0
 11
236.9004890324019
 21
101.401408723695
 31
0.0
  0
LINE
  5
2D2
330
75
100
AcDbEntity
  8
0
100
AcDbLine
 10
231.3391641669968
 20
114.4156273303173
 30
0.0
 11
236.6118138978071
 21
114.4156273303173
 31
0.0
  0
LINE
  5
2D3
330
75
100
AcDbEntity
  8
0
100
AcDbLine
 10
236.6118138978071
 20
100.0785330681628
 30
0.0
 11
231.3391641669968
 21
100.0785330681628
 31
0.0
  0
LINE
  5
2D4
330
75
100
AcDbEntity
  8
0
100
AcDbLine
 10
231.3391641669968
 20
102.7242843792273
 30
0.0
 11
236.6118138978071
 21
102.7242843792273
 31
0.0
  0
LINE
  5
2D5
330
75
100
AcDbEntity
  8
0
100
AcDbLine
 10
236.6118138978071
 20
104.6013288881754
 30
0.0
 11
231.3391641669968
 21
104.6013288881754
 31
0.0
  0
LINE
  5
2D6
330
75
100
AcDbEntity
  8
0
100
AcDbLine
 10
231.3391641669968
 20
109.8928315103046
 30
0.0
 11
236.6118138978071
 21
109.8928315103046
 31
0.0
  0
LINE
  5
2D7
330
75
100
AcDbEntity
  8
0
100
AcDbLine
 10
236.6118138978071
 20
111.7698760192527
 30
0.0
 11
231.3391641669968
 21
111.7698760192527
 31
0.0
  0
LINE
  5
2D8
330
75
100
AcDbEntity
  8
0
100
AcDbLine
 10
250.150489032402
 20
101.07208019924
 30
0.0
 11
250.150489032402
 21
113.42208019924
 31
0.0
  0
LINE
  5
2D9
330
75
100
AcDbEntity
  8
0
100
AcDbLine
 10
250.4754890324019
 20
100.74708019924
 30
0.0
 11
250.4754890324019
 21
113.74708019924
 31
0.0
  0
LINE
  5
2DA
330
75
100
AcDbEntity
  8
0
100
AcDbLine
 10
251.7504890324019
 20
101.07208019924
 30
0.0
 11
251.7504890324019
 21
113.42208019924
 31
0.0
  0
LINE
  5
2DB
330
75
100
AcDbEntity
  8
0
100
AcDbLine
 10
249.0504890324019
 20
102.4084946773786
 30
0.0
 11
236.9004890324019
 21
102.4084946773786
 31
0.0
  0
LINE
  5
2DC
330
75
100
AcDbEntity
  8
0
100
AcDbLine
 10
236.9004890324019
 20
100.7518896708567
 30
0.0
 11
249.0504890324019
 21
100.7518896708567
 31
0.0
  0
LINE
  5
2DD
330
75
100
AcDbEntity
  8
0
100
AcDbLine
 10
249.0504890324019
 20
102.4084946773786
 30
0.0
 11
249.0504890324019
 21
100.7518896708567
 31
0.0
  0
LINE
  5
2DE
330
75
100
AcDbEntity
  8
0
100
AcDbLine
 10
249.0504890324019
 20
108.9036852057619
 30
0.0
 11
236.9004890324019
 21
108.9036852057619
 31
0.0
  0
LINE
  5
2DF
330
75
100
AcDbEntity
  8
0
100
AcDbLine
 10
236.9004890324019
 20
105.5904751927181
 30
0.0
 11
249.0504890324019
 21
105.5904751927181
 31
0.0
  0
LINE
  5
2E0
330
75
100
AcDbEntity
  8
0
100
AcDbLine
 10
249.0504890324019
 20
108.9036852057619
 30
0.0
 11
249.0504890324019
 21
105.5904751927181
 31
0.0
  0
LINE
  5
2E1
330
75
100
AcDbEntity
  8
0
100
AcDbLine
 10
249.0504890324019
 20
113.7422707276233
 30
0.0
 11
236.9004890324019
 21
113.7422707276233
 31
0.0
  0
LINE
  5
2E2
330
75
100
AcDbEntity
  8
0
100
AcDbLine
 10
236.9004890324019
 20
112.0856657211014
 30
0.0
 11
249.0504890324019
 21
112.0856657211014
 31
0.0
  0
LINE
  5
2E3
330
75
100
AcDbEntity
  8
0
100
AcDbLine
 10
249.0504890324019
 20
113.7422707276233
 30
0.0
 11
249.0504890324019
 21
112.0856657211014
 31
0.0
  0
LINE
  5
2E4
330
75
100
AcDbEntity
  8
0
100
AcDbLine
 10
249.0504890324019
 20
108.9036852057619
 30
0.0
 11
249.0504890324019
 21
112.0856657211014
 31
0.0
  0
LINE
  5
2E5
330
75
100
AcDbEntity
  8
0
100
AcDbLine
 10
249.0504890324019
 20
102.4084946773786
 30
0.0
 11
249.0504890324019
 21
105.5904751927181
 31
0.0
  0
LINE
  5
2E6
330
75
100
AcDbEntity
  8
0
100
AcDbLine
 10
231.0504890324019
 20
113.99708019924
 30
0.0
 11
231.3391641669968
 21
114.49708019924
 31
0.0
  0
LINE
  5
2E7
330
75
100
AcDbEntity
  8
0
100
AcDbLine
 10
231.0504890324019
 20
100.49708019924
 30
0.0
 11
231.3391641669968
 21
99.99708019924007
 31
0.0
  0
LINE
  5
2E8
330
75
100
AcDbEntity
  8
0
100
AcDbLine
 10
236.9004890324019
 20
113.99708019924
 30
0.0
 11
236.6118138978071
 21
114.49708019924
 31
0.0
  0
LINE
  5
2E9
330
75
100
AcDbEntity
  8
0
100
AcDbLine
 10
236.9004890324019
 20
100.49708019924
 30
0.0
 11
236.6118138978071
 21
99.99708019924007
 31
0.0
  0
LINE
  5
2EA
330
75
100
AcDbEntity
  8
0
100
AcDbLine
 10
231.3391641669968
 20
114.49708019924
 30
0.0
 11
236.6118138978071
 21
114.49708019924
 31
0.0
  0
LINE
  5
2EB
330
75
100
AcDbEntity
  8
0
100
AcDbLine
 10
231.3391641669968
 20
99.99708019924007
 30
0.0
 11
236.6118138978071
 21
99.99708019924007
 31
0.0
  0
LINE
  5
2EC
330
75
100
AcDbEntity
  8
0
100
AcDbLine
 10
249.0504890324019
 20
111.84708019924
 30
0.0
 11
250.150489032402
 21
111.84708019924
 31
0.0
  0
LINE
  5
2ED
330
75
100
AcDbEntity
  8
0
100
AcDbLine
 10
249.0504890324019
 20
102.64708019924
 30
0.0
 11
250.150489032402
 21
102.64708019924
 31
0.0
  0
LINE
  5
2EE
330
75
100
AcDbEntity
  8
0
100
AcDbLine
 10
250.150489032402
 20
113.42208019924
 30
0.0
 11
250.4754890324019
 21
113.74708019924
 31
0.0
  0
LINE
  5
2EF
330
75
100
AcDbEntity
  8
0
100
AcDbLine
 10
250.150489032402
 20
101.07208019924
 30
0.0
 11
250.4754890324019
 21
100.74708019924
 31
0.0
  0
LINE
  5
2F0
330
75
100
AcDbEntity
  8
0
100
AcDbLine
 10
250.4754890324019
 20
113.74708019924
 30
0.0
 11
251.4254890324019
 21
113.74708019924
 31
0.0
  0
LINE
  5
2F1
330
75
100
AcDbEntity
  8
0
100
AcDbLine
 10
250.4754890324019
 20
100.74708019924
 30
0.0
 11
251.4254890324019
 21
100.74708019924
 31
0.0
  0
ARC
  5
2F2
330
75
100
AcDbEntity
  8
0
100
AcDbCircle
 10
251.4254890324019
 20
101.07208019924
 30
0.0
 40
0.325
100
AcDbArc
 50
270.0
 51
0.0
  0
ARC
  5
2F3
330
75
100
AcDbEntity
  8
0
100
AcDbCircle
 10
251.4254890324019
 20
113.42208019924
 30
0.0
 40
0.325
100
AcDbArc
 50
0.0
 51
90.0
  0
ELLIPSE
  5
2F4
330
75
100
AcDbEntity
  8
0
100
AcDbEllipse
 10
82.9659025584405
 20
110.48458019924
 30
0.0
 11
-1.999999999999995
 21
-0.0000000000001776
 31
0.0
210
0.0
220
0.0
230
1.0
 40
0.8660254037844385
 41
3.750459823018986
 42
5.674318137750121
  0
POLYLINE
  5
2F5
330
75
100
AcDbEntity
  8
0
100
AcDb2dPolyline
 66
     1
 10
0.0
 20
0.0
 30
0.0
 70
   128
  0
VERTEX
  5
2F6
330
2F5
100
AcDbEntity
  8
0
100
AcDbVertex
100
AcDb2dVertex
 10
82.96590160476617
 20
110.6689113302214
 30
0.0
  0
VERTEX
  5
2F7
330
2F5
100
AcDbEntity
  8
0
100
AcDbVertex
100
AcDb2dVertex
 10
82.47239660369805
 20
110.7288572115882
 30
0.0
  0
VERTEX
  5
2F9
330
2F5
100
AcDbEntity
  8
0
100
AcDbVertex
100
AcDb2dVertex
 10
81.9985110675042
 20
110.9080180449469
 30
0.0
  0
VERTEX
  5
2FA
330
2F5
100
AcDbEntity
  8
0
100
AcDbVertex
100
AcDb2dVertex
 10
81.59514259445122
 20
111.1851379199012
 30
0.0
  0
VERTEX
  5
2FB
330
2F5
100
AcDbEntity
  8
0
100
AcDbVertex
100
AcDb2dVertex
 10
81.28095220672539
 20
111.5370944066031
 30
0.0
  0
VERTEX
  5
2FC
330
2F5
100
AcDbEntity
  8
0
100
AcDbVertex
100
AcDb2dVertex
 10
81.06340598213128
 20
111.9544035119994
 30
0.0
  0
VERTEX
  5
2FD
330
2F5
100
AcDbEntity
  8
0
100
AcDbVertex
100
AcDb2dVertex
 10
80.96978258239678
 20
112.3910820407851
 30
0.0
  0
VERTEX
  5
2FE
330
2F5
100
AcDbEntity
  8
0
100
AcDbVertex
100
AcDb2dVertex
 10
81.00091051208428
 20
112.813873879431
 30
0.0
  0
VERTEX
  5
2FF
330
2F5
100
AcDbEntity
  8
0
100
AcDbVertex
100
AcDb2dVertex
 10
81.15746330367974
 20
113.2191967887862
 30
0.0
  0
VERTEX
  5
300
330
2F5
100
AcDbEntity
  8
0
100
AcDbVertex
100
AcDb2dVertex
 10
81.42854522811822
 20
113.5654735488875
 30
0.0
  0
VERTEX
  5
301
330
2F5
100
AcDbEntity
  8
0
100
AcDbVertex
100
AcDb2dVertex
 10
81.78543757545403
 20
113.8323199672683
 30
0.0
  0
VERTEX
  5
302
330
2F5
100
AcDbEntity
  8
0
100
AcDbVertex
100
AcDb2dVertex
 10
82.22935508834771
 20
114.0244114322646
 30
0.0
  0
VERTEX
  5
303
330
2F5
100
AcDbEntity
  8
0
100
AcDbVertex
100
AcDb2dVertex
 10
82.72041629898003
 20
114.1210865898116
 30
0.0
  0
VERTEX
  5
304
330
2F5
100
AcDbEntity
  8
0
100
AcDbVertex
100
AcDb2dVertex
 10
83.21138929473809
 20
114.1210865898116
 30
0.0
  0
VERTEX
  5
305
330
2F5
100
AcDbEntity
  8
0
100
AcDbVertex
100
AcDb2dVertex
 10
83.70245050537041
 20
114.0244114322646
 30
0.0
  0
VERTEX
  5
306
330
2F5
100
AcDbEntity
  8
0
100
AcDbVertex
100
AcDb2dVertex
 10
84.14636682617119
 20
113.8323199672683
 30
0.0
  0
VERTEX
  5
307
330
2F5
100
AcDbEntity
  8
0
100
AcDbVertex
100
AcDb2dVertex
 10
84.50326036559991
 20
113.5654735488875
 30
0.0
  0
VERTEX
  5
308
330
2F5
100
AcDbEntity
  8
0
100
AcDbVertex
100
AcDb2dVertex
 10
84.77434229003838
 20
113.2191967887862
 30
0.0
  0
VERTEX
  5
309
330
2F5
100
AcDbEntity
  8
0
100
AcDbVertex
100
AcDb2dVertex
 10
84.93089508163384
 20
112.813873879431
 30
0.0
  0
VERTEX
  5
30A
330
2F5
100
AcDbEntity
  8
0
100
AcDbVertex
100
AcDb2dVertex
 10
84.96202301132134
 20
112.3910820407851
 30
0.0
  0
VERTEX
  5
30B
330
2F5
100
AcDbEntity
  8
0
100
AcDbVertex
100
AcDb2dVertex
 10
84.86839841949395
 20
111.9544035119994
 30
0.0
  0
VERTEX
  5
30C
330
2F5
100
AcDbEntity
  8
0
100
AcDbVertex
100
AcDb2dVertex
 10
84.65085338699273
 20
111.5370944066031
 30
0.0
  0
VERTEX
  5
30D
330
2F5
100
AcDbEntity
  8
0
100
AcDbVertex
100
AcDb2dVertex
 10
84.3366629992669
 20
111.1851379199012
 30
0.0
  0
VERTEX
  5
30E
330
2F5
100
AcDbEntity
  8
0
100
AcDbVertex
100
AcDb2dVertex
 10
83.93329452621392
 20
110.9080180449469
 30
0.0
  0
VERTEX
  5
30F
330
2F5
100
AcDbEntity
  8
0
100
AcDbVertex
100
AcDb2dVertex
 10
83.45940899002007
 20
110.7288572115882
 30
0.0
  0
VERTEX
  5
310
330
2F5
100
AcDbEntity
  8
0
100
AcDbVertex
100
AcDb2dVertex
 10
82.96590160476617
 20
110.6689113302214
 30
0.0
  0
SEQEND
  5
2F8
330
2F5
100
AcDbEntity
  8
0
  0
POLYLINE
  5
311
330
75
100
AcDbEntity
  8
0
100
AcDb2dPolyline
 66
     1
 10
0.0
 20
0.0
 30
0.0
 70
   128
  0
VERTEX
  5
312
330
311
100
AcDbEntity
  8
0
100
AcDbVertex
100
AcDb2dVertex
 10
80.9659023200219
 20
96.74708067607717
 30
0.0
  0
VERTEX
  5
313
330
311
100
AcDbEntity
  8
0
100
AcDbVertex
100
AcDb2dVertex
 10
80.98276447402886
 20
96.75033389758901
 30
0.0
  0
VERTEX
  5
315
330
311
100
AcDbEntity
  8
0
100
AcDbVertex
100
AcDb2dVertex
 10
81.03353809463433
 20
96.75980745982961
 30
0.0
  0
VERTEX
  5
316
330
311
100
AcDbEntity
  8
0
100
AcDbVertex
100
AcDb2dVertex
 10
81.11850451576165
 20
96.77507578563528
 30
0.0
  0
VERTEX
  5
317
330
311
100
AcDbEntity
  8
0
100
AcDbVertex
100
AcDb2dVertex
 10
81.23683642494134
 20
96.79527937602834
 30
0.0
  0
VERTEX
  5
318
330
311
100
AcDbEntity
  8
0
100
AcDbVertex
100
AcDb2dVertex
 10
81.38333391296319
 20
96.81850849819021
 30
0.0
  0
VERTEX
  5
319
330
311
100
AcDbEntity
  8
0
100
AcDbVertex
100
AcDb2dVertex
 10
81.55171345817498
 20
96.84275805187063
 30
0.0
  0
VERTEX
  5
31A
330
311
100
AcDbEntity
  8
0
100
AcDbVertex
100
AcDb2dVertex
 10
81.74374889480523
 20
96.86706840228872
 30
0.0
  0
VERTEX
  5
31B
330
311
100
AcDbEntity
  8
0
100
AcDbVertex
100
AcDb2dVertex
 10
81.96162890541009
 20
96.89045726489858
 30
0.0
  0
VERTEX
  5
31C
330
311
100
AcDbEntity
  8
0
100
AcDbVertex
100
AcDb2dVertex
 10
82.19969820129326
 20
96.91087781619863
 30
0.0
  0
VERTEX
  5
31D
330
311
100
AcDbEntity
  8
0
100
AcDbVertex
100
AcDb2dVertex
 10
82.45184969055108
 20
96.92636548709707
 30
0.0
  0
VERTEX
  5
31E
330
311
100
AcDbEntity
  8
0
100
AcDbVertex
100
AcDb2dVertex
 10
82.71008085357598
 20
96.93599998187856
 30
0.0
  0
VERTEX
  5
31F
330
311
100
AcDbEntity
  8
0
100
AcDbVertex
100
AcDb2dVertex
 10
82.96590160476617
 20
96.93931638431386
 30
0.0
  0
VERTEX
  5
320
330
311
100
AcDbEntity
  8
0
100
AcDbVertex
100
AcDb2dVertex
 10
83.22172474014214
 20
96.93599998187856
 30
0.0
  0
VERTEX
  5
321
330
311
100
AcDbEntity
  8
0
100
AcDbVertex
100
AcDb2dVertex
 10
83.47995590316704
 20
96.92636548709707
 30
0.0
  0
VERTEX
  5
322
330
311
100
AcDbEntity
  8
0
100
AcDbVertex
100
AcDb2dVertex
 10
83.73210739242486
 20
96.91087781619863
 30
0.0
  0
VERTEX
  5
323
330
311
100
AcDbEntity
  8
0
100
AcDbVertex
100
AcDb2dVertex
 10
83.97017549621514
 20
96.89045726489858
 30
0.0
  0
VERTEX
  5
324
330
311
100
AcDbEntity
  8
0
100
AcDbVertex
100
AcDb2dVertex
 10
84.18805669891289
 20
96.86706840228872
 30
0.0
  0
VERTEX
  5
325
330
311
100
AcDbEntity
  8
0
100
AcDbVertex
100
AcDb2dVertex
 10
84.38009094345025
 20
96.84275805187063
 30
0.0
  0
VERTEX
  5
326
330
311
100
AcDbEntity
  8
0
100
AcDbVertex
100
AcDb2dVertex
 10
84.54847168075493
 20
96.81850849819021
 30
0.0
  0
VERTEX
  5
327
330
311
100
AcDbEntity
  8
0
100
AcDbVertex
100
AcDb2dVertex
 10
84.69496797668389
 20
96.79527937602834
 30
0.0
  0
VERTEX
  5
328
330
311
100
AcDbEntity
  8
0
100
AcDbVertex
100
AcDb2dVertex
 10
84.81330227004937
 20
96.77507578563528
 30
0.0
  0
VERTEX
  5
329
330
311
100
AcDbEntity
  8
0
100
AcDbVertex
100
AcDb2dVertex
 10
84.89826749908379
 20
96.75980745982961
 30
0.0
  0
VERTEX
  5
32A
330
311
100
AcDbEntity
  8
0
100
AcDbVertex
100
AcDb2dVertex
 10
84.94904111968926
 20
96.75033389758901
 30
0.0
  0
VERTEX
  5
32B
330
311
100
AcDbEntity
  8
0
100
AcDbVertex
100
AcDb2dVertex
 10
84.96590208160332
 20
96.74708067607717
 30
0.0
  0
SEQEND
  5
314
330
311
100
AcDbEntity
  8
0
  0
ELLIPSE
  5
32C
330
75
100
AcDbEntity
  8
LINIE
 48
10.0
100
AcDbEllipse
 10
91.8452878000123
 20
107.24708019924
 30
0.0
 11
-80.81405479135147
 21
3.053382866100589
 31
0.0
210
0.0
220
0.0
230
0.9999999999999998
 40
0.1722352440902725
 41
1.519369479593999
 42
1.542742229905079
  0
POLYLINE
  5
32D
330
75
100
AcDbEntity
  8
LINIE
 48
10.0
100
AcDb2dPolyline
 66
     1
 10
0.0
 20
0.0
 30
0.0
 70
   128
  0
VERTEX
  5
32E
330
32D
100
AcDbEntity
  8
LINIE
 48
10.0
100
AcDbVertex
100
AcDb2dVertex
 10
86.96590255844048
 20
93.70877801608877
 30
0.0
  0
VERTEX
  5
32F
330
32D
100
AcDbEntity
  8
LINIE
 48
10.0
100
AcDbVertex
100
AcDb2dVertex
 10
86.9741780673211
 20
93.7002772016509
 30
0.0
  0
VERTEX
  5
331
330
32D
100
AcDbEntity
  8
LINIE
 48
10.0
100
AcDbVertex
100
AcDb2dVertex
 10
86.98246072875909
 20
93.69177042674856
 30
0.0
  0
VERTEX
  5
332
330
32D
100
AcDbEntity
  8
LINIE
 48
10.0
100
AcDbVertex
100
AcDb2dVertex
 10
86.99074577438286
 20
93.68325888347463
 30
0.0
  0
VERTEX
  5
333
330
32D
100
AcDbEntity
  8
LINIE
 48
10.0
100
AcDbVertex
100
AcDb2dVertex
 10
86.99903797256402
 20
93.67474376392202
 30
0.0
  0
VERTEX
  5
334
330
32D
100
AcDbEntity
  8
LINIE
 48
10.0
100
AcDbVertex
100
AcDb2dVertex
 10
87.00733255493096
 20
93.66622268390491
 30
0.0
  0
VERTEX
  5
335
330
32D
100
AcDbEntity
  8
LINIE
 48
10.0
100
AcDbVertex
100
AcDb2dVertex
 10
87.01563428985528
 20
93.65769683551626
 30
0.0
  0
VERTEX
  5
336
330
32D
100
AcDbEntity
  8
LINIE
 48
10.0
100
AcDbVertex
100
AcDb2dVertex
 10
87.02394079315117
 20
93.6491674108489
 30
0.0
  0
VERTEX
  5
337
330
32D
100
AcDbEntity
  8
LINIE
 48
10.0
100
AcDbVertex
100
AcDb2dVertex
 10
87.03225206481866
 20
93.64063202571706
 30
0.0
  0
VERTEX
  5
338
330
32D
100
AcDbEntity
  8
LINIE
 48
10.0
100
AcDbVertex
100
AcDb2dVertex
 10
87.04056572067193
 20
93.63209187221364
 30
0.0
  0
VERTEX
  5
339
330
32D
100
AcDbEntity
  8
LINIE
 48
10.0
100
AcDbVertex
100
AcDb2dVertex
 10
87.04888652908257
 20
93.62354695033864
 30
0.0
  0
VERTEX
  5
33A
330
32D
100
AcDbEntity
  8
LINIE
 48
10.0
100
AcDbVertex
100
AcDb2dVertex
 10
87.05721449005059
 20
93.61499726009206
 30
0.0
  0
VERTEX
  5
33B
330
32D
100
AcDbEntity
  8
LINIE
 48
10.0
100
AcDbVertex
100
AcDb2dVertex
 10
87.0655448352044
 20
93.6064428014739
 30
0.0
  0
VERTEX
  5
33C
330
32D
100
AcDbEntity
  8
LINIE
 48
10.0
100
AcDbVertex
100
AcDb2dVertex
 10
87.07387994872979
 20
93.59788357448415
 30
0.0
  0
VERTEX
  5
33D
330
32D
100
AcDbEntity
  8
LINIE
 48
10.0
100
AcDbVertex
100
AcDb2dVertex
 10
87.08221983062676
 20
93.58931957912279
 30
0.0
  0
VERTEX
  5
33E
330
32D
100
AcDbEntity
  8
LINIE
 48
10.0
100
AcDbVertex
100
AcDb2dVertex
 10
87.09056686508111
 20
93.58075081538991
 30
0.0
  0
VERTEX
  5
33F
330
32D
100
AcDbEntity
  8
LINIE
 48
10.0
100
AcDbVertex
100
AcDb2dVertex
 10
87.09891628372124
 20
93.57217609119251
 30
0.0
  0
VERTEX
  5
340
330
32D
100
AcDbEntity
  8
LINIE
 48
10.0
100
AcDbVertex
100
AcDb2dVertex
 10
87.10727285491875
 20
93.56359779071643
 30
0.0
  0
VERTEX
  5
341
330
32D
100
AcDbEntity
  8
LINIE
 48
10.0
100
AcDbVertex
100
AcDb2dVertex
 10
87.11563419448784
 20
93.5550147218688
 30
0.0
  0
VERTEX
  5
342
330
32D
100
AcDbEntity
  8
LINIE
 48
10.0
100
AcDbVertex
100
AcDb2dVertex
 10
87.12399791824273
 20
93.54642569255664
 30
0.0
  0
VERTEX
  5
343
330
32D
100
AcDbEntity
  8
LINIE
 48
10.0
100
AcDbVertex
100
AcDb2dVertex
 10
87.13236879455498
 20
93.53783189487295
 30
0.0
  0
VERTEX
  5
344
330
32D
100
AcDbEntity
  8
LINIE
 48
10.0
100
AcDbVertex
100
AcDb2dVertex
 10
87.14074443923882
 20
93.52923452091054
 30
0.0
  0
VERTEX
  5
345
330
32D
100
AcDbEntity
  8
LINIE
 48
10.0
100
AcDbVertex
100
AcDb2dVertex
 10
87.14912723648003
 20
93.52063118648363
 30
0.0
  0
VERTEX
  5
346
330
32D
100
AcDbEntity
  8
LINIE
 48
10.0
100
AcDbVertex
100
AcDb2dVertex
 10
87.15751241790703
 20
93.5120230836852
 30
0.0
  0
VERTEX
  5
347
330
32D
100
AcDbEntity
  8
LINIE
 48
10.0
100
AcDbVertex
100
AcDb2dVertex
 10
87.16590236770562
 20
93.50341021251516
 30
0.0
  0
SEQEND
  5
330
330
32D
100
AcDbEntity
  8
LINIE
 48
10.0
  0
POLYLINE
  5
348
330
75
100
AcDbEntity
  8
LINIE
 48
10.0
100
AcDb2dPolyline
 66
     1
 10
0.0
 20
0.0
 30
0.0
 70
   128
  0
VERTEX
  5
349
330
348
100
AcDbEntity
  8
LINIE
 48
10.0
100
AcDbVertex
100
AcDb2dVertex
 10
89.05272554504326
 20
93.41917692851858
 30
0.0
  0
VERTEX
  5
34A
330
348
100
AcDbEntity
  8
LINIE
 48
10.0
100
AcDbVertex
100
AcDb2dVertex
 10
89.10974573242119
 20
93.4159070177062
 30
0.0
  0
VERTEX
  5
34C
330
348
100
AcDbEntity
  8
LINIE
 48
10.0
100
AcDbVertex
100
AcDb2dVertex
 10
89.16521381484917
 20
93.41103374194936
 30
0.0
  0
VERTEX
  5
34D
330
348
100
AcDbEntity
  8
LINIE
 48
10.0
100
AcDbVertex
100
AcDb2dVertex
 10
89.2177755747979
 20
93.4046548528655
 30
0.0
  0
VERTEX
  5
34E
330
348
100
AcDbEntity
  8
LINIE
 48
10.0
100
AcDbVertex
100
AcDb2dVertex
 10
89.26637243377617
 20
93.39701830577688
 30
0.0
  0
VERTEX
  5
34F
330
348
100
AcDbEntity
  8
LINIE
 48
10.0
100
AcDbVertex
100
AcDb2dVertex
 10
89.31000064956597
 20
93.38841377925707
 30
0.0
  0
VERTEX
  5
350
330
348
100
AcDbEntity
  8
LINIE
 48
10.0
100
AcDbVertex
100
AcDb2dVertex
 10
89.34856008636407
 20
93.37892233562307
 30
0.0
  0
VERTEX
  5
351
330
348
100
AcDbEntity
  8
LINIE
 48
10.0
100
AcDbVertex
100
AcDb2dVertex
 10
89.38309501754693
 20
93.36833059024648
 30
0.0
  0
VERTEX
  5
352
330
348
100
AcDbEntity
  8
LINIE
 48
10.0
100
AcDbVertex
100
AcDb2dVertex
 10
89.41259931671075
 20
93.35689126682119
 30
0.0
  0
VERTEX
  5
353
330
348
100
AcDbEntity
  8
LINIE
 48
10.0
100
AcDbVertex
100
AcDb2dVertex
 10
89.4359905635064
 20
93.34487616252735
 30
0.0
  0
VERTEX
  5
354
330
348
100
AcDbEntity
  8
LINIE
 48
10.0
100
AcDbVertex
100
AcDb2dVertex
 10
89.45265125381402
 20
93.33258806896047
 30
0.0
  0
VERTEX
  5
355
330
348
100
AcDbEntity
  8
LINIE
 48
10.0
100
AcDbVertex
100
AcDb2dVertex
 10
89.46260046111992
 20
93.3203476591094
 30
0.0
  0
VERTEX
  5
356
330
348
100
AcDbEntity
  8
LINIE
 48
10.0
100
AcDbVertex
100
AcDb2dVertex
 10
89.46590255844048
 20
93.30847679805591
 30
0.0
  0
VERTEX
  5
357
330
348
100
AcDbEntity
  8
LINIE
 48
10.0
100
AcDbVertex
100
AcDb2dVertex
 10
89.46260046111992
 20
93.2968360109313
 30
0.0
  0
VERTEX
  5
358
330
348
100
AcDbEntity
  8
LINIE
 48
10.0
100
AcDbVertex
100
AcDb2dVertex
 10
89.45265125381402
 20
93.28526913356618
 30
0.0
  0
VERTEX
  5
359
330
348
100
AcDbEntity
  8
LINIE
 48
10.0
100
AcDbVertex
100
AcDb2dVertex
 10
89.4359905635064
 20
93.27406942081287
 30
0.0
  0
VERTEX
  5
35A
330
348
100
AcDbEntity
  8
LINIE
 48
10.0
100
AcDbVertex
100
AcDb2dVertex
 10
89.41259931671075
 20
93.26352535915212
 30
0.0
  0
VERTEX
  5
35B
330
348
100
AcDbEntity
  8
LINIE
 48
10.0
100
AcDbVertex
100
AcDb2dVertex
 10
89.38309501754693
 20
93.25383483600454
 30
0.0
  0
VERTEX
  5
35C
330
348
100
AcDbEntity
  8
LINIE
 48
10.0
100
AcDbVertex
100
AcDb2dVertex
 10
89.34856008636407
 20
93.24514090251758
 30
0.0
  0
VERTEX
  5
35D
330
348
100
AcDbEntity
  8
LINIE
 48
10.0
100
AcDbVertex
100
AcDb2dVertex
 10
89.31000064956597
 20
93.23757349681692
 30
0.0
  0
VERTEX
  5
35E
330
348
100
AcDbEntity
  8
LINIE
 48
10.0
100
AcDbVertex
100
AcDb2dVertex
 10
89.26637243377617
 20
93.23089658450918
 30
0.0
  0
VERTEX
  5
35F
330
348
100
AcDbEntity
  8
LINIE
 48
10.0
100
AcDbVertex
100
AcDb2dVertex
 10
89.2177755747979
 20
93.22510182094411
 30
0.0
  0
VERTEX
  5
360
330
348
100
AcDbEntity
  8
LINIE
 48
10.0
100
AcDbVertex
100
AcDb2dVertex
 10
89.16521381484917
 20
93.22035729121999
 30
0.0
  0
VERTEX
  5
361
330
348
100
AcDbEntity
  8
LINIE
 48
10.0
100
AcDbVertex
100
AcDb2dVertex
 10
89.10974573242119
 20
93.21679054927663
 30
0.0
  0
VERTEX
  5
362
330
348
100
AcDbEntity
  8
LINIE
 48
10.0
100
AcDbVertex
100
AcDb2dVertex
 10
89.05272554504326
 20
93.21442424487905
 30
0.0
  0
SEQEND
  5
34B
330
348
100
AcDbEntity
  8
LINIE
 48
10.0
  0
LINE
  5
363
330
75
100
AcDbEntity
  8
LINIE
 48
10.0
100
AcDbLine
 10
86.96590255844048
 20
103.1841438622735
 30
0.0
 11
86.96590255844048
 21
103.7317973335344
 31
0.0
  0
LINE
  5
364
330
75
100
AcDbEntity
  8
LINIE
 48
10.0
100
AcDbLine
 10
86.96590255844048
 20
103.1841438622735
 30
0.0
 11
88.40212589535173
 21
103.4249940980526
 31
0.0
  0
LINE
  5
365
330
75
100
AcDbEntity
  8
LINIE
 48
10.0
100
AcDbLine
 10
86.96590255844048
 20
105.2938772494821
 30
0.0
 11
86.96590255844048
 21
106.1495313349296
 31
0.0
  0
LINE
  5
366
330
75
100
AcDbEntity
  8
LINIE
 48
10.0
100
AcDbLine
 10
86.96590255844048
 20
105.2938772494821
 30
0.0
 11
89.05272664727394
 21
105.6598248983801
 31
0.0
  0
ELLIPSE
  5
367
330
75
100
AcDbEntity
  8
LINIE
 48
10.0
100
AcDbEllipse
 10
88.96590255844047
 20
106.1495313349296
 30
0.0
 11
0.4999999999999902
 21
0.0000000000000152
 31
0.0
210
0.0
220
0.0
230
1.0
 40
0.9945218953682738
 41
4.886921905584106
 42
5.878208161754492
  0
LINE
  5
368
330
75
100
AcDbEntity
  8
LINIE
 48
10.0
100
AcDbLine
 10
86.96590255844048
 20
106.1495313349296
 30
0.0
 11
86.96590255844048
 21
106.6368655312613
 31
0.0
  0
LINE
  5
369
330
75
100
AcDbEntity
  8
LINIE
 48
10.0
100
AcDbLine
 10
86.96590255844048
 20
107.8572948672187
 30
0.0
 11
86.96590255844048
 21
108.3446290635504
 31
0.0
  0
ELLIPSE
  5
36A
330
75
100
AcDbEntity
  8
LINIE
 48
10.0
100
AcDbEllipse
 10
88.96590255844047
 20
108.3446290635504
 30
0.0
 11
-0.5000000000000148
 21
0.0000000000000357
 31
0.0
210
0.0
220
0.0
230
1.0
 40
0.9945218953682712
 41
3.546569799014898
 42
4.537856055185288
  0
LINE
  5
36B
330
75
100
AcDbEntity
  8
LINIE
 48
10.0
100
AcDbLine
 10
89.05272664727394
 20
108.8343355000999
 30
0.0
 11
86.96590255844048
 21
109.2002831489979
 31
0.0
  0
LINE
  5
36C
330
75
100
AcDbEntity
  8
LINIE
 48
10.0
100
AcDbLine
 10
86.96590255844048
 20
108.3446290635504
 30
0.0
 11
86.96590255844048
 21
109.2002831489979
 31
0.0
  0
LINE
  5
36D
330
75
100
AcDbEntity
  8
LINIE
 48
10.0
100
AcDbLine
 10
88.4021258953517
 20
111.0691663004274
 30
0.0
 11
86.96590255844048
 21
111.3100165362065
 31
0.0
  0
LINE
  5
36E
330
75
100
AcDbEntity
  8
LINIE
 48
10.0
100
AcDbLine
 10
86.96590255844048
 20
110.7623630649456
 30
0.0
 11
86.96590255844048
 21
111.3100165362065
 31
0.0
  0
LINE
  5
36F
330
75
100
AcDbEntity
  8
LINIE
 48
10.0
100
AcDbLine
 10
86.96590255844048
 20
93.35101731401314
 30
0.0
 11
86.96590255844048
 21
93.7087781405752
 31
0.0
  0
POLYLINE
  5
370
330
75
100
AcDbEntity
  8
LINIE
 48
10.0
100
AcDb2dPolyline
 66
     1
 10
0.0
 20
0.0
 30
0.0
 70
   128
  0
VERTEX
  5
371
330
370
100
AcDbEntity
  8
LINIE
 48
10.0
100
AcDbVertex
100
AcDb2dVertex
 10
87.16590236770562
 20
93.16031395625904
 30
0.0
  0
VERTEX
  5
372
330
370
100
AcDbEntity
  8
LINIE
 48
10.0
100
AcDbVertex
100
AcDb2dVertex
 10
87.15751241790703
 20
93.16831170749502
 30
0.0
  0
VERTEX
  5
374
330
370
100
AcDbEntity
  8
LINIE
 48
10.0
100
AcDbVertex
100
AcDb2dVertex
 10
87.14912723648003
 20
93.1763046903594
 30
0.0
  0
VERTEX
  5
375
330
370
100
AcDbEntity
  8
LINIE
 48
10.0
100
AcDbVertex
100
AcDb2dVertex
 10
87.14074443923882
 20
93.18429290485219
 30
0.0
  0
VERTEX
  5
376
330
370
100
AcDbEntity
  8
LINIE
 48
10.0
100
AcDbVertex
100
AcDb2dVertex
 10
87.13236879455498
 20
93.19227754306631
 30
0.0
  0
VERTEX
  5
377
330
370
100
AcDbEntity
  8
LINIE
 48
10.0
100
AcDbVertex
100
AcDb2dVertex
 10
87.12399791824273
 20
93.20025622081594
 30
0.0
  0
VERTEX
  5
378
330
370
100
AcDbEntity
  8
LINIE
 48
10.0
100
AcDbVertex
100
AcDb2dVertex
 10
87.11563419448784
 20
93.20823132228687
 30
0.0
  0
VERTEX
  5
379
330
370
100
AcDbEntity
  8
LINIE
 48
10.0
100
AcDbVertex
100
AcDb2dVertex
 10
87.10727285491875
 20
93.21620284747915
 30
0.0
  0
VERTEX
  5
37A
330
370
100
AcDbEntity
  8
LINIE
 48
10.0
100
AcDbVertex
100
AcDb2dVertex
 10
87.09891628372124
 20
93.22416841220691
 30
0.0
  0
VERTEX
  5
37B
330
370
100
AcDbEntity
  8
LINIE
 48
10.0
100
AcDbVertex
100
AcDb2dVertex
 10
87.09056686508111
 20
93.23213040065605
 30
0.0
  0
VERTEX
  5
37C
330
370
100
AcDbEntity
  8
LINIE
 48
10.0
100
AcDbVertex
100
AcDb2dVertex
 10
87.08221983062676
 20
93.24008762073354
 30
0.0
  0
VERTEX
  5
37D
330
370
100
AcDbEntity
  8
LINIE
 48
10.0
100
AcDbVertex
100
AcDb2dVertex
 10
87.07387994872979
 20
93.24804007243947
 30
0.0
  0
VERTEX
  5
37E
330
370
100
AcDbEntity
  8
LINIE
 48
10.0
100
AcDbVertex
100
AcDb2dVertex
 10
87.0655448352044
 20
93.25598775577384
 30
0.0
  0
VERTEX
  5
37F
330
370
100
AcDbEntity
  8
LINIE
 48
10.0
100
AcDbVertex
100
AcDb2dVertex
 10
87.05721449005059
 20
93.26393186282947
 30
0.0
  0
VERTEX
  5
380
330
370
100
AcDbEntity
  8
LINIE
 48
10.0
100
AcDbVertex
100
AcDb2dVertex
 10
87.04888652908257
 20
93.27187120151355
 30
0.0
  0
VERTEX
  5
381
330
370
100
AcDbEntity
  8
LINIE
 48
10.0
100
AcDbVertex
100
AcDb2dVertex
 10
87.04056572067193
 20
93.27980577182607
 30
0.0
  0
VERTEX
  5
382
330
370
100
AcDbEntity
  8
LINIE
 48
10.0
100
AcDbVertex
100
AcDb2dVertex
 10
87.03225206481866
 20
93.28773557376699
 30
0.0
  0
VERTEX
  5
383
330
370
100
AcDbEntity
  8
LINIE
 48
10.0
100
AcDbVertex
100
AcDb2dVertex
 10
87.02394079315117
 20
93.29566179942922
 30
0.0
  0
VERTEX
  5
384
330
370
100
AcDbEntity
  8
LINIE
 48
10.0
100
AcDbVertex
100
AcDb2dVertex
 10
87.01563428985528
 20
93.30358325671987
 30
0.0
  0
VERTEX
  5
385
330
370
100
AcDbEntity
  8
LINIE
 48
10.0
100
AcDbVertex
100
AcDb2dVertex
 10
87.00733255493096
 20
93.31149994563894
 30
0.0
  0
VERTEX
  5
386
330
370
100
AcDbEntity
  8
LINIE
 48
10.0
100
AcDbVertex
100
AcDb2dVertex
 10
86.99903797256402
 20
93.31941186618642
 30
0.0
  0
VERTEX
  5
387
330
370
100
AcDbEntity
  8
LINIE
 48
10.0
100
AcDbVertex
100
AcDb2dVertex
 10
86.99074577438286
 20
93.32732021045522
 30
0.0
  0
VERTEX
  5
388
330
370
100
AcDbEntity
  8
LINIE
 48
10.0
100
AcDbVertex
100
AcDb2dVertex
 10
86.98246072875909
 20
93.33522378635244
 30
0.0
  0
VERTEX
  5
389
330
370
100
AcDbEntity
  8
LINIE
 48
10.0
100
AcDbVertex
100
AcDb2dVertex
 10
86.9741780673211
 20
93.34312259387807
 30
0.0
  0
VERTEX
  5
38A
330
370
100
AcDbEntity
  8
LINIE
 48
10.0
100
AcDbVertex
100
AcDb2dVertex
 10
86.96590255844048
 20
93.351017825125
 30
0.0
  0
SEQEND
  5
373
330
370
100
AcDbEntity
  8
LINIE
 48
10.0
  0
ELLIPSE
  5
38B
330
75
100
AcDbEntity
  8
LINIE
 48
10.0
100
AcDbEllipse
 10
91.84528780001235
 20
107.24708019924
 30
0.0
 11
80.81405479135142
 21
3.053382866100605
 31
0.0
210
0.0
220
0.0
230
1.0
 40
0.1722352440902725
 41
4.647947250532848
 42
4.671320000843926
  0
LINE
  5
38C
330
75
100
AcDbEntity
  8
LINIE
 48
10.0
100
AcDbLine
 10
86.96590255844048
 20
94.08591154581978
 30
0.0
 11
86.96590255844048
 21
94.78579733409624
 31
0.0
  0
POLYLINE
  5
38D
330
75
100
AcDbEntity
  8
LINIE
 48
10.0
100
AcDb2dPolyline
 66
     1
 10
0.0
 20
0.0
 30
0.0
 70
   128
  0
VERTEX
  5
38E
330
38D
100
AcDbEntity
  8
LINIE
 48
10.0
100
AcDbVertex
100
AcDb2dVertex
 10
87.16590236770562
 20
93.91529857349231
 30
0.0
  0
VERTEX
  5
38F
330
38D
100
AcDbEntity
  8
LINIE
 48
10.0
100
AcDbVertex
100
AcDb2dVertex
 10
87.15751241790703
 20
93.92245351505115
 30
0.0
  0
VERTEX
  5
391
330
38D
100
AcDbEntity
  8
LINIE
 48
10.0
100
AcDbVertex
100
AcDb2dVertex
 10
87.14912723648003
 20
93.92960488033128
 30
0.0
  0
VERTEX
  5
392
330
38D
100
AcDbEntity
  8
LINIE
 48
10.0
100
AcDbVertex
100
AcDb2dVertex
 10
87.14074443923882
 20
93.93675147723987
 30
0.0
  0
VERTEX
  5
393
330
38D
100
AcDbEntity
  8
LINIE
 48
10.0
100
AcDbVertex
100
AcDb2dVertex
 10
87.13236879455498
 20
93.94389449786975
 30
0.0
  0
VERTEX
  5
394
330
38D
100
AcDbEntity
  8
LINIE
 48
10.0
100
AcDbVertex
100
AcDb2dVertex
 10
87.12399791824273
 20
93.95103275012807
 30
0.0
  0
VERTEX
  5
395
330
38D
100
AcDbEntity
  8
LINIE
 48
10.0
100
AcDbVertex
100
AcDb2dVertex
 10
87.11563419448784
 20
93.95816861820057
 30
0.0
  0
VERTEX
  5
396
330
38D
100
AcDbEntity
  8
LINIE
 48
10.0
100
AcDbVertex
100
AcDb2dVertex
 10
87.10727285491875
 20
93.96529852580862
 30
0.0
  0
VERTEX
  5
397
330
38D
100
AcDbEntity
  8
LINIE
 48
10.0
100
AcDbVertex
100
AcDb2dVertex
 10
87.09891628372124
 20
93.97242604923086
 30
0.0
  0
VERTEX
  5
398
330
38D
100
AcDbEntity
  8
LINIE
 48
10.0
100
AcDbVertex
100
AcDb2dVertex
 10
87.09056686508111
 20
93.97954880428152
 30
0.0
  0
VERTEX
  5
399
330
38D
100
AcDbEntity
  8
LINIE
 48
10.0
100
AcDbVertex
100
AcDb2dVertex
 10
87.08221983062676
 20
93.98666679096059
 30
0.0
  0
VERTEX
  5
39A
330
38D
100
AcDbEntity
  8
LINIE
 48
10.0
100
AcDbVertex
100
AcDb2dVertex
 10
87.07387994872979
 20
93.99378239345388
 30
0.0
  0
VERTEX
  5
39B
330
38D
100
AcDbEntity
  8
LINIE
 48
10.0
100
AcDbVertex
100
AcDb2dVertex
 10
87.0655448352044
 20
94.00089322757557
 30
0.0
  0
VERTEX
  5
39C
330
38D
100
AcDbEntity
  8
LINIE
 48
10.0
100
AcDbVertex
100
AcDb2dVertex
 10
87.05721449005059
 20
94.00799929332571
 30
0.0
  0
VERTEX
  5
39D
330
38D
100
AcDbEntity
  8
LINIE
 48
10.0
100
AcDbVertex
100
AcDb2dVertex
 10
87.04888652908257
 20
94.01510297489004
 30
0.0
  0
VERTEX
  5
39E
330
38D
100
AcDbEntity
  8
LINIE
 48
10.0
100
AcDbVertex
100
AcDb2dVertex
 10
87.04056572067193
 20
94.02220069598987
 30
0.0
  0
VERTEX
  5
39F
330
38D
100
AcDbEntity
  8
LINIE
 48
10.0
100
AcDbVertex
100
AcDb2dVertex
 10
87.03225206481866
 20
94.02929603290395
 30
0.0
  0
VERTEX
  5
3A0
330
38D
100
AcDbEntity
  8
LINIE
 48
10.0
100
AcDbVertex
100
AcDb2dVertex
 10
87.02394079315117
 20
94.03638660144643
 30
0.0
  0
VERTEX
  5
3A1
330
38D
100
AcDbEntity
  8
LINIE
 48
10.0
100
AcDbVertex
100
AcDb2dVertex
 10
87.01563428985528
 20
94.04347359371023
 30
0.0
  0
VERTEX
  5
3A2
330
38D
100
AcDbEntity
  8
LINIE
 48
10.0
100
AcDbVertex
100
AcDb2dVertex
 10
87.00733255493096
 20
94.05055700969532
 30
0.0
  0
VERTEX
  5
3A3
330
38D
100
AcDbEntity
  8
LINIE
 48
10.0
100
AcDbVertex
100
AcDb2dVertex
 10
86.99903797256402
 20
94.05763565730886
 30
0.0
  0
VERTEX
  5
3A4
330
38D
100
AcDbEntity
  8
LINIE
 48
10.0
100
AcDbVertex
100
AcDb2dVertex
 10
86.99074577438286
 20
94.0647107286437
 30
0.0
  0
VERTEX
  5
3A5
330
38D
100
AcDbEntity
  8
LINIE
 48
10.0
100
AcDbVertex
100
AcDb2dVertex
 10
86.98246072875909
 20
94.07178103160696
 30
0.0
  0
VERTEX
  5
3A6
330
38D
100
AcDbEntity
  8
LINIE
 48
10.0
100
AcDbVertex
100
AcDb2dVertex
 10
86.9741780673211
 20
94.07884895038442
 30
0.0
  0
VERTEX
  5
3A7
330
38D
100
AcDbEntity
  8
LINIE
 48
10.0
100
AcDbVertex
100
AcDb2dVertex
 10
86.96590255844048
 20
94.08591210079027
 30
0.0
  0
SEQEND
  5
390
330
38D
100
AcDbEntity
  8
LINIE
 48
10.0
  0
ELLIPSE
  5
3A8
330
75
100
AcDbEntity
  8
LINIE
 48
10.0
100
AcDbEllipse
 10
91.84528780001231
 20
107.24708019924
 30
0.0
 11
80.81014351696543
 21
5.949149574849967
 31
0.0
210
0.0
220
0.0
230
0.9999999999999998
 40
0.1602366875915962
 41
4.642658798840116
 42
4.666031549151195
  0
ELLIPSE
  5
3A9
330
75
100
AcDbEntity
  8
LINIE
 48
10.0
100
AcDbEllipse
 10
91.8452878000123
 20
107.24708019924
 30
0.0
 11
-80.81014351696545
 21
5.949149574849956
 31
0.0
210
0.0
220
0.0
230
0.9999999999999998
 40
0.1602366875915961
 41
1.52465793128673
 42
1.548030681597809
  0
POLYLINE
  5
3AA
330
75
100
AcDbEntity
  8
LINIE
 48
10.0
100
AcDb2dPolyline
 66
     1
 10
0.0
 20
0.0
 30
0.0
 70
   128
  0
VERTEX
  5
3AB
330
3AA
100
AcDbEntity
  8
LINIE
 48
10.0
100
AcDbVertex
100
AcDb2dVertex
 10
86.96590255844048
 20
94.78579699230031
 30
0.0
  0
VERTEX
  5
3AC
330
3AA
100
AcDbEntity
  8
LINIE
 48
10.0
100
AcDbVertex
100
AcDb2dVertex
 10
86.9741780673211
 20
94.7775477094634
 30
0.0
  0
VERTEX
  5
3AE
330
3AA
100
AcDbEntity
  8
LINIE
 48
10.0
100
AcDbVertex
100
AcDb2dVertex
 10
86.98246072875909
 20
94.76929246616199
 30
0.0
  0
VERTEX
  5
3AF
330
3AA
100
AcDbEntity
  8
LINIE
 48
10.0
100
AcDbVertex
100
AcDb2dVertex
 10
86.99074577438286
 20
94.76103245448904
 30
0.0
  0
VERTEX
  5
3B0
330
3AA
100
AcDbEntity
  8
LINIE
 48
10.0
100
AcDbVertex
100
AcDb2dVertex
 10
86.99903797256402
 20
94.75276886653738
 30
0.0
  0
VERTEX
  5
3B1
330
3AA
100
AcDbEntity
  8
LINIE
 48
10.0
100
AcDbVertex
100
AcDb2dVertex
 10
87.00733255493096
 20
94.74449931812124
 30
0.0
  0
VERTEX
  5
3B2
330
3AA
100
AcDbEntity
  8
LINIE
 48
10.0
100
AcDbVertex
100
AcDb2dVertex
 10
87.01563428985528
 20
94.7362261934264
 30
0.0
  0
VERTEX
  5
3B3
330
3AA
100
AcDbEntity
  8
LINIE
 48
10.0
100
AcDbVertex
100
AcDb2dVertex
 10
87.02394079315117
 20
94.72794830035999
 30
0.0
  0
VERTEX
  5
3B4
330
3AA
100
AcDbEntity
  8
LINIE
 48
10.0
100
AcDbVertex
100
AcDb2dVertex
 10
87.03225206481866
 20
94.71966444682912
 30
0.0
  0
VERTEX
  5
3B5
330
3AA
100
AcDbEntity
  8
LINIE
 48
10.0
100
AcDbVertex
100
AcDb2dVertex
 10
87.04056572067193
 20
94.71137701701955
 30
0.0
  0
VERTEX
  5
3B6
330
3AA
100
AcDbEntity
  8
LINIE
 48
10.0
100
AcDbVertex
100
AcDb2dVertex
 10
87.04888652908257
 20
94.7030848188384
 30
0.0
  0
VERTEX
  5
3B7
330
3AA
100
AcDbEntity
  8
LINIE
 48
10.0
100
AcDbVertex
100
AcDb2dVertex
 10
87.05721449005059
 20
94.69478785228568
 30
0.0
  0
VERTEX
  5
3B8
330
3AA
100
AcDbEntity
  8
LINIE
 48
10.0
100
AcDbVertex
100
AcDb2dVertex
 10
87.0655448352044
 20
94.68648611736135
 30
0.0
  0
VERTEX
  5
3B9
330
3AA
100
AcDbEntity
  8
LINIE
 48
10.0
100
AcDbVertex
100
AcDb2dVertex
 10
87.07387994872979
 20
94.67817961406543
 30
0.0
  0
VERTEX
  5
3BA
330
3AA
100
AcDbEntity
  8
LINIE
 48
10.0
100
AcDbVertex
100
AcDb2dVertex
 10
87.08221983062676
 20
94.66986834239795
 30
0.0
  0
VERTEX
  5
3BB
330
3AA
100
AcDbEntity
  8
LINIE
 48
10.0
100
AcDbVertex
100
AcDb2dVertex
 10
87.09056686508111
 20
94.66155230235891
 30
0.0
  0
VERTEX
  5
3BC
330
3AA
100
AcDbEntity
  8
LINIE
 48
10.0
100
AcDbVertex
100
AcDb2dVertex
 10
87.09891628372124
 20
94.65323268604116
 30
0.0
  0
VERTEX
  5
3BD
330
3AA
100
AcDbEntity
  8
LINIE
 48
10.0
100
AcDbVertex
100
AcDb2dVertex
 10
87.10727285491875
 20
94.64490710925892
 30
0.0
  0
VERTEX
  5
3BE
330
3AA
100
AcDbEntity
  8
LINIE
 48
10.0
100
AcDbVertex
100
AcDb2dVertex
 10
87.11563419448784
 20
94.63657676410512
 30
0.0
  0
VERTEX
  5
3BF
330
3AA
100
AcDbEntity
  8
LINIE
 48
10.0
100
AcDbVertex
100
AcDb2dVertex
 10
87.12399791824273
 20
94.62824165057972
 30
0.0
  0
VERTEX
  5
3C0
330
3AA
100
AcDbEntity
  8
LINIE
 48
10.0
100
AcDbVertex
100
AcDb2dVertex
 10
87.13236879455498
 20
94.61990296077566
 30
0.0
  0
VERTEX
  5
3C1
330
3AA
100
AcDbEntity
  8
LINIE
 48
10.0
100
AcDbVertex
100
AcDb2dVertex
 10
87.14074443923882
 20
94.61155831050707
 30
0.0
  0
VERTEX
  5
3C2
330
3AA
100
AcDbEntity
  8
LINIE
 48
10.0
100
AcDbVertex
100
AcDb2dVertex
 10
87.14912723648003
 20
94.60320889186695
 30
0.0
  0
VERTEX
  5
3C3
330
3AA
100
AcDbEntity
  8
LINIE
 48
10.0
100
AcDbVertex
100
AcDb2dVertex
 10
87.15751241790703
 20
94.59485589694814
 30
0.0
  0
VERTEX
  5
3C4
330
3AA
100
AcDbEntity
  8
LINIE
 48
10.0
100
AcDbVertex
100
AcDb2dVertex
 10
87.16590236770562
 20
94.58649694156484
 30
0.0
  0
SEQEND
  5
3AD
330
3AA
100
AcDbEntity
  8
LINIE
 48
10.0
  0
POLYLINE
  5
3C5
330
75
100
AcDbEntity
  8
LINIE
 48
10.0
100
AcDb2dPolyline
 66
     1
 10
0.0
 20
0.0
 30
0.0
 70
   128
  0
VERTEX
  5
3C6
330
3C5
100
AcDbEntity
  8
LINIE
 48
10.0
100
AcDbVertex
100
AcDb2dVertex
 10
89.05272554504326
 20
94.43710982036428
 30
0.0
  0
VERTEX
  5
3C7
330
3C5
100
AcDbEntity
  8
LINIE
 48
10.0
100
AcDbVertex
100
AcDb2dVertex
 10
89.10974573242119
 20
94.43117438983756
 30
0.0
  0
VERTEX
  5
3C9
330
3C5
100
AcDbEntity
  8
LINIE
 48
10.0
100
AcDbVertex
100
AcDb2dVertex
 10
89.16521381484917
 20
94.42230998706655
 30
0.0
  0
VERTEX
  5
3CA
330
3C5
100
AcDbEntity
  8
LINIE
 48
10.0
100
AcDbVertex
100
AcDb2dVertex
 10
89.2177755747979
 20
94.41066562366323
 30
0.0
  0
VERTEX
  5
3CB
330
3C5
100
AcDbEntity
  8
LINIE
 48
10.0
100
AcDbVertex
100
AcDb2dVertex
 10
89.26637243377617
 20
94.39666806888418
 30
0.0
  0
VERTEX
  5
3CC
330
3C5
100
AcDbEntity
  8
LINIE
 48
10.0
100
AcDbVertex
100
AcDb2dVertex
 10
89.31000064956597
 20
94.3808191938384
 30
0.0
  0
VERTEX
  5
3CD
330
3C5
100
AcDbEntity
  8
LINIE
 48
10.0
100
AcDbVertex
100
AcDb2dVertex
 10
89.34856008636407
 20
94.36323463153676
 30
0.0
  0
VERTEX
  5
3CE
330
3C5
100
AcDbEntity
  8
LINIE
 48
10.0
100
AcDbVertex
100
AcDb2dVertex
 10
89.38309501754693
 20
94.34348522853687
 30
0.0
  0
VERTEX
  5
3CF
330
3C5
100
AcDbEntity
  8
LINIE
 48
10.0
100
AcDbVertex
100
AcDb2dVertex
 10
89.41259931671075
 20
94.32199894618824
 30
0.0
  0
VERTEX
  5
3D0
330
3C5
100
AcDbEntity
  8
LINIE
 48
10.0
100
AcDbVertex
100
AcDb2dVertex
 10
89.4359905635064
 20
94.29924785327749
 30
0.0
  0
VERTEX
  5
3D1
330
3C5
100
AcDbEntity
  8
LINIE
 48
10.0
100
AcDbVertex
100
AcDb2dVertex
 10
89.45265125381402
 20
94.27576481532888
 30
0.0
  0
VERTEX
  5
3D2
330
3C5
100
AcDbEntity
  8
LINIE
 48
10.0
100
AcDbVertex
100
AcDb2dVertex
 10
89.46260046111992
 20
94.25216256809072
 30
0.0
  0
VERTEX
  5
3D3
330
3C5
100
AcDbEntity
  8
LINIE
 48
10.0
100
AcDbVertex
100
AcDb2dVertex
 10
89.46590255844048
 20
94.22905742358999
 30
0.0
  0
VERTEX
  5
3D4
330
3C5
100
AcDbEntity
  8
LINIE
 48
10.0
100
AcDbVertex
100
AcDb2dVertex
 10
89.46260046111992
 20
94.20616685581043
 30
0.0
  0
VERTEX
  5
3D5
330
3C5
100
AcDbEntity
  8
LINIE
 48
10.0
100
AcDbVertex
100
AcDb2dVertex
 10
89.45265125381402
 20
94.18319403362112
 30
0.0
  0
VERTEX
  5
3D6
330
3C5
100
AcDbEntity
  8
LINIE
 48
10.0
100
AcDbVertex
100
AcDb2dVertex
 10
89.4359905635064
 20
94.16072904300527
 30
0.0
  0
VERTEX
  5
3D7
330
3C5
100
AcDbEntity
  8
LINIE
 48
10.0
100
AcDbVertex
100
AcDb2dVertex
 10
89.41259931671075
 20
94.13935004901723
 30
0.0
  0
VERTEX
  5
3D8
330
3C5
100
AcDbEntity
  8
LINIE
 48
10.0
100
AcDbVertex
100
AcDb2dVertex
 10
89.38309501754693
 20
94.11949693393543
 30
0.0
  0
VERTEX
  5
3D9
330
3C5
100
AcDbEntity
  8
LINIE
 48
10.0
100
AcDbVertex
100
AcDb2dVertex
 10
89.34856008636407
 20
94.10151898097828
 30
0.0
  0
VERTEX
  5
3DA
330
3C5
100
AcDbEntity
  8
LINIE
 48
10.0
100
AcDbVertex
100
AcDb2dVertex
 10
89.31000064956597
 20
94.08573209476307
 30
0.0
  0
VERTEX
  5
3DB
330
3C5
100
AcDbEntity
  8
LINIE
 48
10.0
100
AcDbVertex
100
AcDb2dVertex
 10
89.26637243377617
 20
94.07168327998951
 30
0.0
  0
VERTEX
  5
3DC
330
3C5
100
AcDbEntity
  8
LINIE
 48
10.0
100
AcDbVertex
100
AcDb2dVertex
 10
89.2177755747979
 20
94.05940710735157
 30
0.0
  0
VERTEX
  5
3DD
330
3C5
100
AcDbEntity
  8
LINIE
 48
10.0
100
AcDbVertex
100
AcDb2dVertex
 10
89.16521381484917
 20
94.04928862285451
 30
0.0
  0
VERTEX
  5
3DE
330
3C5
100
AcDbEntity
  8
LINIE
 48
10.0
100
AcDbVertex
100
AcDb2dVertex
 10
89.10974573242119
 20
94.04164373111562
 30
0.0
  0
VERTEX
  5
3DF
330
3C5
100
AcDbEntity
  8
LINIE
 48
10.0
100
AcDbVertex
100
AcDb2dVertex
 10
89.05272554504326
 20
94.03655349445179
 30
0.0
  0
SEQEND
  5
3C8
330
3C5
100
AcDbEntity
  8
LINIE
 48
10.0
  0
LINE
  5
3E0
330
75
100
AcDbEntity
  8
LINIE
 48
10.0
100
AcDbLine
 10
86.96590255844048
 20
95.39601200207492
 30
0.0
 11
86.96590255844048
 21
96.40743438469343
 31
0.0
  0
POLYLINE
  5
3E1
330
75
100
AcDbEntity
  8
LINIE
 48
10.0
100
AcDb2dPolyline
 66
     1
 10
0.0
 20
0.0
 30
0.0
 70
   128
  0
VERTEX
  5
3E2
330
3E1
100
AcDbEntity
  8
LINIE
 48
10.0
100
AcDbVertex
100
AcDb2dVertex
 10
87.16590236770562
 20
95.25294720363454
 30
0.0
  0
VERTEX
  5
3E3
330
3E1
100
AcDbEntity
  8
LINIE
 48
10.0
100
AcDbVertex
100
AcDb2dVertex
 10
87.15751241790703
 20
95.25894700717763
 30
0.0
  0
VERTEX
  5
3E5
330
3E1
100
AcDbEntity
  8
LINIE
 48
10.0
100
AcDbVertex
100
AcDb2dVertex
 10
87.14912723648003
 20
95.26494323444204
 30
0.0
  0
VERTEX
  5
3E6
330
3E1
100
AcDbEntity
  8
LINIE
 48
10.0
100
AcDbVertex
100
AcDb2dVertex
 10
87.14074443923882
 20
95.27093588542776
 30
0.0
  0
VERTEX
  5
3E7
330
3E1
100
AcDbEntity
  8
LINIE
 48
10.0
100
AcDbVertex
100
AcDb2dVertex
 10
87.13236879455498
 20
95.27692496013479
 30
0.0
  0
VERTEX
  5
3E8
330
3E1
100
AcDbEntity
  8
LINIE
 48
10.0
100
AcDbVertex
100
AcDb2dVertex
 10
87.12399791824273
 20
95.28291045856311
 30
0.0
  0
VERTEX
  5
3E9
330
3E1
100
AcDbEntity
  8
LINIE
 48
10.0
100
AcDbVertex
100
AcDb2dVertex
 10
87.11563419448784
 20
95.28889357280569
 30
0.0
  0
VERTEX
  5
3EA
330
3E1
100
AcDbEntity
  8
LINIE
 48
10.0
100
AcDbVertex
100
AcDb2dVertex
 10
87.10727285491875
 20
95.29487311076955
 30
0.0
  0
VERTEX
  5
3EB
330
3E1
100
AcDbEntity
  8
LINIE
 48
10.0
100
AcDbVertex
100
AcDb2dVertex
 10
87.09891628372124
 20
95.30084907245472
 30
0.0
  0
VERTEX
  5
3EC
330
3E1
100
AcDbEntity
  8
LINIE
 48
10.0
100
AcDbVertex
100
AcDb2dVertex
 10
87.09056686508111
 20
95.30682145786123
 30
0.0
  0
VERTEX
  5
3ED
330
3E1
100
AcDbEntity
  8
LINIE
 48
10.0
100
AcDbVertex
100
AcDb2dVertex
 10
87.08221983062676
 20
95.31279145908191
 30
0.0
  0
VERTEX
  5
3EE
330
3E1
100
AcDbEntity
  8
LINIE
 48
10.0
100
AcDbVertex
100
AcDb2dVertex
 10
87.07387994872979
 20
95.31875669193103
 30
0.0
  0
VERTEX
  5
3EF
330
3E1
100
AcDbEntity
  8
LINIE
 48
10.0
100
AcDbVertex
100
AcDb2dVertex
 10
87.0655448352044
 20
95.32471954059436
 30
0.0
  0
VERTEX
  5
3F0
330
3E1
100
AcDbEntity
  8
LINIE
 48
10.0
100
AcDbVertex
100
AcDb2dVertex
 10
87.05721449005059
 20
95.33067881297904
 30
0.0
  0
VERTEX
  5
3F1
330
3E1
100
AcDbEntity
  8
LINIE
 48
10.0
100
AcDbVertex
100
AcDb2dVertex
 10
87.04888652908257
 20
95.33663450908498
 30
0.0
  0
VERTEX
  5
3F2
330
3E1
100
AcDbEntity
  8
LINIE
 48
10.0
100
AcDbVertex
100
AcDb2dVertex
 10
87.04056572067193
 20
95.34258782100515
 30
0.0
  0
VERTEX
  5
3F3
330
3E1
100
AcDbEntity
  8
LINIE
 48
10.0
100
AcDbVertex
100
AcDb2dVertex
 10
87.03225206481866
 20
95.34853755664663
 30
0.0
  0
VERTEX
  5
3F4
330
3E1
100
AcDbEntity
  8
LINIE
 48
10.0
100
AcDbVertex
100
AcDb2dVertex
 10
87.02394079315117
 20
95.35448252391651
 30
0.0
  0
VERTEX
  5
3F5
330
3E1
100
AcDbEntity
  8
LINIE
 48
10.0
100
AcDbVertex
100
AcDb2dVertex
 10
87.01563428985528
 20
95.36042510700063
 30
0.0
  0
VERTEX
  5
3F6
330
3E1
100
AcDbEntity
  8
LINIE
 48
10.0
100
AcDbVertex
100
AcDb2dVertex
 10
87.00733255493096
 20
95.36636530589895
 30
0.0
  0
VERTEX
  5
3F7
330
3E1
100
AcDbEntity
  8
LINIE
 48
10.0
100
AcDbVertex
100
AcDb2dVertex
 10
86.99903797256402
 20
95.37230073642568
 30
0.0
  0
VERTEX
  5
3F8
330
3E1
100
AcDbEntity
  8
LINIE
 48
10.0
100
AcDbVertex
100
AcDb2dVertex
 10
86.99074577438286
 20
95.37823378276662
 30
0.0
  0
VERTEX
  5
3F9
330
3E1
100
AcDbEntity
  8
LINIE
 48
10.0
100
AcDbVertex
100
AcDb2dVertex
 10
86.98246072875909
 20
95.38416325282888
 30
0.0
  0
VERTEX
  5
3FA
330
3E1
100
AcDbEntity
  8
LINIE
 48
10.0
100
AcDbVertex
100
AcDb2dVertex
 10
86.9741780673211
 20
95.39008914661243
 30
0.0
  0
VERTEX
  5
3FB
330
3E1
100
AcDbEntity
  8
LINIE
 48
10.0
100
AcDbVertex
100
AcDb2dVertex
 10
86.96590255844048
 20
95.39601146411731
 30
0.0
  0
SEQEND
  5
3E4
330
3E1
100
AcDbEntity
  8
LINIE
 48
10.0
  0
ELLIPSE
  5
3FC
330
75
100
AcDbEntity
  8
LINIE
 48
10.0
100
AcDbEllipse
 10
91.84528780001231
 20
107.24708019924
 30
0.0
 11
80.80676653500317
 21
8.547048941318928
 31
0.0
210
0.0
220
0.0
230
1.0
 40
0.1411046770739301
 41
4.639530953458228
 42
4.662903703769308
  0
ELLIPSE
  5
3FD
330
75
100
AcDbEntity
  8
LINIE
 48
10.0
100
AcDbEllipse
 10
91.8452878000123
 20
107.24708019924
 30
0.0
 11
-80.8067665350032
 21
8.547048941318914
 31
0.0
210
0.0
220
0.0
230
0.9999999999999998
 40
0.1411046770739301
 41
1.527785776668619
 42
1.5511585269797
  0
POLYLINE
  5
3FE
330
75
100
AcDbEntity
  8
LINIE
 48
10.0
100
AcDb2dPolyline
 66
     1
 10
0.0
 20
0.0
 30
0.0
 70
   128
  0
VERTEX
  5
3FF
330
3FE
100
AcDbEntity
  8
LINIE
 48
10.0
100
AcDbVertex
100
AcDb2dVertex
 10
86.96590255844048
 20
96.40743433666068
 30
0.0
  0
VERTEX
  5
400
330
3FE
100
AcDbEntity
  8
LINIE
 48
10.0
100
AcDbVertex
100
AcDb2dVertex
 10
86.9741780673211
 20
96.39979659747915
 30
0.0
  0
VERTEX
  5
402
330
3FE
100
AcDbEntity
  8
LINIE
 48
10.0
100
AcDbVertex
100
AcDb2dVertex
 10
86.98246072875909
 20
96.39215289783315
 30
0.0
  0
VERTEX
  5
403
330
3FE
100
AcDbEntity
  8
LINIE
 48
10.0
100
AcDbVertex
100
AcDb2dVertex
 10
86.99074577438286
 20
96.38450681400136
 30
0.0
  0
VERTEX
  5
404
330
3FE
100
AcDbEntity
  8
LINIE
 48
10.0
100
AcDbVertex
100
AcDb2dVertex
 10
86.99903797256402
 20
96.3768547697051
 30
0.0
  0
VERTEX
  5
405
330
3FE
100
AcDbEntity
  8
LINIE
 48
10.0
100
AcDbVertex
100
AcDb2dVertex
 10
87.00733255493096
 20
96.36919914913015
 30
0.0
  0
VERTEX
  5
406
330
3FE
100
AcDbEntity
  8
LINIE
 48
10.0
100
AcDbVertex
100
AcDb2dVertex
 10
87.01563428985528
 20
96.36153995227651
 30
0.0
  0
VERTEX
  5
407
330
3FE
100
AcDbEntity
  8
LINIE
 48
10.0
100
AcDbVertex
100
AcDb2dVertex
 10
87.02394079315117
 20
96.3538747949584
 30
0.0
  0
VERTEX
  5
408
330
3FE
100
AcDbEntity
  8
LINIE
 48
10.0
100
AcDbVertex
100
AcDb2dVertex
 10
87.03225206481866
 20
96.34620606136159
 30
0.0
  0
VERTEX
  5
409
330
3FE
100
AcDbEntity
  8
LINIE
 48
10.0
100
AcDbVertex
100
AcDb2dVertex
 10
87.04056572067193
 20
96.33853375148612
 30
0.0
  0
VERTEX
  5
40A
330
3FE
100
AcDbEntity
  8
LINIE
 48
10.0
100
AcDbVertex
100
AcDb2dVertex
 10
87.04888652908257
 20
96.33085548114614
 30
0.0
  0
VERTEX
  5
40B
330
3FE
100
AcDbEntity
  8
LINIE
 48
10.0
100
AcDbVertex
100
AcDb2dVertex
 10
87.05721449005059
 20
96.32317363452749
 30
0.0
  0
VERTEX
  5
40C
330
3FE
100
AcDbEntity
  8
LINIE
 48
10.0
100
AcDbVertex
100
AcDb2dVertex
 10
87.0655448352044
 20
96.31548821163015
 30
0.0
  0
VERTEX
  5
40D
330
3FE
100
AcDbEntity
  8
LINIE
 48
10.0
100
AcDbVertex
100
AcDb2dVertex
 10
87.07387994872979
 20
96.30779802036123
 30
0.0
  0
VERTEX
  5
40E
330
3FE
100
AcDbEntity
  8
LINIE
 48
10.0
100
AcDbVertex
100
AcDb2dVertex
 10
87.08221983062676
 20
96.30010306072072
 30
0.0
  0
VERTEX
  5
40F
330
3FE
100
AcDbEntity
  8
LINIE
 48
10.0
100
AcDbVertex
100
AcDb2dVertex
 10
87.09056686508111
 20
96.29240333270864
 30
0.0
  0
VERTEX
  5
410
330
3FE
100
AcDbEntity
  8
LINIE
 48
10.0
100
AcDbVertex
100
AcDb2dVertex
 10
87.09891628372124
 20
96.28470002841787
 30
0.0
  0
VERTEX
  5
411
330
3FE
100
AcDbEntity
  8
LINIE
 48
10.0
100
AcDbVertex
100
AcDb2dVertex
 10
87.10727285491875
 20
96.27699195575551
 30
0.0
  0
VERTEX
  5
412
330
3FE
100
AcDbEntity
  8
LINIE
 48
10.0
100
AcDbVertex
100
AcDb2dVertex
 10
87.11563419448784
 20
96.26927911472158
 30
0.0
  0
VERTEX
  5
413
330
3FE
100
AcDbEntity
  8
LINIE
 48
10.0
100
AcDbVertex
100
AcDb2dVertex
 10
87.12399791824273
 20
96.26156269740896
 30
0.0
  0
VERTEX
  5
414
330
3FE
100
AcDbEntity
  8
LINIE
 48
10.0
100
AcDbVertex
100
AcDb2dVertex
 10
87.13236879455498
 20
96.25384151172475
 30
0.0
  0
VERTEX
  5
415
330
3FE
100
AcDbEntity
  8
LINIE
 48
10.0
100
AcDbVertex
100
AcDb2dVertex
 10
87.14074443923882
 20
96.24611555766897
 30
0.0
  0
VERTEX
  5
416
330
3FE
100
AcDbEntity
  8
LINIE
 48
10.0
100
AcDbVertex
100
AcDb2dVertex
 10
87.14912723648003
 20
96.23838602733449
 30
0.0
  0
VERTEX
  5
417
330
3FE
100
AcDbEntity
  8
LINIE
 48
10.0
100
AcDbVertex
100
AcDb2dVertex
 10
87.15751241790703
 20
96.23065172862844
 30
0.0
  0
VERTEX
  5
418
330
3FE
100
AcDbEntity
  8
LINIE
 48
10.0
100
AcDbVertex
100
AcDb2dVertex
 10
87.16590236770562
 20
96.2229126615508
 30
0.0
  0
SEQEND
  5
401
330
3FE
100
AcDbEntity
  8
LINIE
 48
10.0
  0
POLYLINE
  5
419
330
75
100
AcDbEntity
  8
LINIE
 48
10.0
100
AcDb2dPolyline
 66
     1
 10
0.0
 20
0.0
 30
0.0
 70
   128
  0
VERTEX
  5
41A
330
419
100
AcDbEntity
  8
LINIE
 48
10.0
100
AcDbVertex
100
AcDb2dVertex
 10
89.05272554504326
 20
96.01490079593496
 30
0.0
  0
VERTEX
  5
41B
330
419
100
AcDbEntity
  8
LINIE
 48
10.0
100
AcDbVertex
100
AcDb2dVertex
 10
89.10974573242119
 20
96.00655972194509
 30
0.0
  0
VERTEX
  5
41D
330
419
100
AcDbEntity
  8
LINIE
 48
10.0
100
AcDbVertex
100
AcDb2dVertex
 10
89.16521381484917
 20
95.99408923816518
 30
0.0
  0
VERTEX
  5
41E
330
419
100
AcDbEntity
  8
LINIE
 48
10.0
100
AcDbVertex
100
AcDb2dVertex
 10
89.2177755747979
 20
95.97768961620168
 30
0.0
  0
VERTEX
  5
41F
330
419
100
AcDbEntity
  8
LINIE
 48
10.0
100
AcDbVertex
100
AcDb2dVertex
 10
89.26637243377617
 20
95.9579414052947
 30
0.0
  0
VERTEX
  5
420
330
419
100
AcDbEntity
  8
LINIE
 48
10.0
100
AcDbVertex
100
AcDb2dVertex
 10
89.31000064956597
 20
95.935543171881
 30
0.0
  0
VERTEX
  5
421
330
419
100
AcDbEntity
  8
LINIE
 48
10.0
100
AcDbVertex
100
AcDb2dVertex
 10
89.34856008636407
 20
95.91063319873647
 30
0.0
  0
VERTEX
  5
422
330
419
100
AcDbEntity
  8
LINIE
 48
10.0
100
AcDbVertex
100
AcDb2dVertex
 10
89.38309501754693
 20
95.88258802127676
 30
0.0
  0
VERTEX
  5
423
330
419
100
AcDbEntity
  8
LINIE
 48
10.0
100
AcDbVertex
100
AcDb2dVertex
 10
89.41259931671075
 20
95.85199653339223
 30
0.0
  0
VERTEX
  5
424
330
419
100
AcDbEntity
  8
LINIE
 48
10.0
100
AcDbVertex
100
AcDb2dVertex
 10
89.4359905635064
 20
95.81950127315359
 30
0.0
  0
VERTEX
  5
425
330
419
100
AcDbEntity
  8
LINIE
 48
10.0
100
AcDbVertex
100
AcDb2dVertex
 10
89.45265125381402
 20
95.7858496828063
 30
0.0
  0
VERTEX
  5
426
330
419
100
AcDbEntity
  8
LINIE
 48
10.0
100
AcDbVertex
100
AcDb2dVertex
 10
89.46260046111992
 20
95.75191795062856
 30
0.0
  0
VERTEX
  5
427
330
419
100
AcDbEntity
  8
LINIE
 48
10.0
100
AcDbVertex
100
AcDb2dVertex
 10
89.46590255844048
 20
95.71858822536306
 30
0.0
  0
VERTEX
  5
428
330
419
100
AcDbEntity
  8
LINIE
 48
10.0
100
AcDbVertex
100
AcDb2dVertex
 10
89.46260046111992
 20
95.68544804286794
 30
0.0
  0
VERTEX
  5
429
330
419
100
AcDbEntity
  8
LINIE
 48
10.0
100
AcDbVertex
100
AcDb2dVertex
 10
89.45265125381402
 20
95.65207301807241
 30
0.0
  0
VERTEX
  5
42A
330
419
100
AcDbEntity
  8
LINIE
 48
10.0
100
AcDbVertex
100
AcDb2dVertex
 10
89.4359905635064
 20
95.61932384204702
 30
0.0
  0
VERTEX
  5
42B
330
419
100
AcDbEntity
  8
LINIE
 48
10.0
100
AcDbVertex
100
AcDb2dVertex
 10
89.41259931671075
 20
95.58804451656179
 30
0.0
  0
VERTEX
  5
42C
330
419
100
AcDbEntity
  8
LINIE
 48
10.0
100
AcDbVertex
100
AcDb2dVertex
 10
89.38309501754693
 20
95.55889784526662
 30
0.0
  0
VERTEX
  5
42D
330
419
100
AcDbEntity
  8
LINIE
 48
10.0
100
AcDbVertex
100
AcDb2dVertex
 10
89.34856008636407
 20
95.53242265415027
 30
0.0
  0
VERTEX
  5
42E
330
419
100
AcDbEntity
  8
LINIE
 48
10.0
100
AcDbVertex
100
AcDb2dVertex
 10
89.31000064956597
 20
95.50910531711416
 30
0.0
  0
VERTEX
  5
42F
330
419
100
AcDbEntity
  8
LINIE
 48
10.0
100
AcDbVertex
100
AcDb2dVertex
 10
89.26637243377617
 20
95.48829971980886
 30
0.0
  0
VERTEX
  5
430
330
419
100
AcDbEntity
  8
LINIE
 48
10.0
100
AcDbVertex
100
AcDb2dVertex
 10
89.2177755747979
 20
95.47007619571523
 30
0.0
  0
VERTEX
  5
431
330
419
100
AcDbEntity
  8
LINIE
 48
10.0
100
AcDbVertex
100
AcDb2dVertex
 10
89.16521381484917
 20
95.45502721500234
 30
0.0
  0
VERTEX
  5
432
330
419
100
AcDbEntity
  8
LINIE
 48
10.0
100
AcDbVertex
100
AcDb2dVertex
 10
89.10974573242119
 20
95.44363795947866
 30
0.0
  0
VERTEX
  5
433
330
419
100
AcDbEntity
  8
LINIE
 48
10.0
100
AcDbVertex
100
AcDb2dVertex
 10
89.05272554504326
 20
95.43604551982715
 30
0.0
  0
SEQEND
  5
41C
330
419
100
AcDbEntity
  8
LINIE
 48
10.0
  0
LINE
  5
434
330
75
100
AcDbEntity
  8
LINIE
 48
10.0
100
AcDbLine
 10
86.96590255844048
 20
97.22406100628081
 30
0.0
 11
86.96590255844048
 21
98.50281597177792
 31
0.0
  0
POLYLINE
  5
435
330
75
100
AcDbEntity
  8
LINIE
 48
10.0
100
AcDb2dPolyline
 66
     1
 10
0.0
 20
0.0
 30
0.0
 70
   128
  0
VERTEX
  5
436
330
435
100
AcDbEntity
  8
LINIE
 48
10.0
100
AcDbVertex
100
AcDb2dVertex
 10
87.16590236770562
 20
97.1147960348113
 30
0.0
  0
VERTEX
  5
437
330
435
100
AcDbEntity
  8
LINIE
 48
10.0
100
AcDbVertex
100
AcDb2dVertex
 10
87.15751241790703
 20
97.11937843990163
 30
0.0
  0
VERTEX
  5
439
330
435
100
AcDbEntity
  8
LINIE
 48
10.0
100
AcDbVertex
100
AcDb2dVertex
 10
87.14912723648003
 20
97.12395726871328
 30
0.0
  0
VERTEX
  5
43A
330
435
100
AcDbEntity
  8
LINIE
 48
10.0
100
AcDbVertex
100
AcDb2dVertex
 10
87.14074443923882
 20
97.12853490543205
 30
0.0
  0
VERTEX
  5
43B
330
435
100
AcDbEntity
  8
LINIE
 48
10.0
100
AcDbVertex
100
AcDb2dVertex
 10
87.13236879455498
 20
97.13310896587209
 30
0.0
  0
VERTEX
  5
43C
330
435
100
AcDbEntity
  8
LINIE
 48
10.0
100
AcDbVertex
100
AcDb2dVertex
 10
87.12399791824273
 20
97.13768064212636
 30
0.0
  0
VERTEX
  5
43D
330
435
100
AcDbEntity
  8
LINIE
 48
10.0
100
AcDbVertex
100
AcDb2dVertex
 10
87.11563419448784
 20
97.14224993419485
 30
0.0
  0
VERTEX
  5
43E
330
435
100
AcDbEntity
  8
LINIE
 48
10.0
100
AcDbVertex
100
AcDb2dVertex
 10
87.10727285491875
 20
97.14681564998464
 30
0.0
  0
VERTEX
  5
43F
330
435
100
AcDbEntity
  8
LINIE
 48
10.0
100
AcDbVertex
100
AcDb2dVertex
 10
87.09891628372124
 20
97.15138017368154
 30
0.0
  0
VERTEX
  5
440
330
435
100
AcDbEntity
  8
LINIE
 48
10.0
100
AcDbVertex
100
AcDb2dVertex
 10
87.09056686508111
 20
97.15594231319265
 30
0.0
  0
VERTEX
  5
441
330
435
100
AcDbEntity
  8
LINIE
 48
10.0
100
AcDbVertex
100
AcDb2dVertex
 10
87.08221983062676
 20
97.16050087642507
 30
0.0
  0
VERTEX
  5
442
330
435
100
AcDbEntity
  8
LINIE
 48
10.0
100
AcDbVertex
100
AcDb2dVertex
 10
87.07387994872979
 20
97.1650570554717
 30
0.0
  0
VERTEX
  5
443
330
435
100
AcDbEntity
  8
LINIE
 48
10.0
100
AcDbVertex
100
AcDb2dVertex
 10
87.0655448352044
 20
97.16961085033254
 30
0.0
  0
VERTEX
  5
444
330
435
100
AcDbEntity
  8
LINIE
 48
10.0
100
AcDbVertex
100
AcDb2dVertex
 10
87.05721449005059
 20
97.17416226100759
 30
0.0
  0
VERTEX
  5
445
330
435
100
AcDbEntity
  8
LINIE
 48
10.0
100
AcDbVertex
100
AcDb2dVertex
 10
87.04888652908257
 20
97.17871128749685
 30
0.0
  0
VERTEX
  5
446
330
435
100
AcDbEntity
  8
LINIE
 48
10.0
100
AcDbVertex
100
AcDb2dVertex
 10
87.04056572067193
 20
97.18325792980031
 30
0.0
  0
VERTEX
  5
447
330
435
100
AcDbEntity
  8
LINIE
 48
10.0
100
AcDbVertex
100
AcDb2dVertex
 10
87.03225206481866
 20
97.18780099582509
 30
0.0
  0
VERTEX
  5
448
330
435
100
AcDbEntity
  8
LINIE
 48
10.0
100
AcDbVertex
100
AcDb2dVertex
 10
87.02394079315117
 20
97.19234286975698
 30
0.0
  0
VERTEX
  5
449
330
435
100
AcDbEntity
  8
LINIE
 48
10.0
100
AcDbVertex
100
AcDb2dVertex
 10
87.01563428985528
 20
97.19688116741018
 30
0.0
  0
VERTEX
  5
44A
330
435
100
AcDbEntity
  8
LINIE
 48
10.0
100
AcDbVertex
100
AcDb2dVertex
 10
87.00733255493096
 20
97.20141708087759
 30
0.0
  0
VERTEX
  5
44B
330
435
100
AcDbEntity
  8
LINIE
 48
10.0
100
AcDbVertex
100
AcDb2dVertex
 10
86.99903797256402
 20
97.2059518022521
 30
0.0
  0
VERTEX
  5
44C
330
435
100
AcDbEntity
  8
LINIE
 48
10.0
100
AcDbVertex
100
AcDb2dVertex
 10
86.99074577438286
 20
97.21048294734792
 30
0.0
  0
VERTEX
  5
44D
330
435
100
AcDbEntity
  8
LINIE
 48
10.0
100
AcDbVertex
100
AcDb2dVertex
 10
86.98246072875909
 20
97.21501170825796
 30
0.0
  0
VERTEX
  5
44E
330
435
100
AcDbEntity
  8
LINIE
 48
10.0
100
AcDbVertex
100
AcDb2dVertex
 10
86.9741780673211
 20
97.2195368928893
 30
0.0
  0
VERTEX
  5
44F
330
435
100
AcDbEntity
  8
LINIE
 48
10.0
100
AcDbVertex
100
AcDb2dVertex
 10
86.96590255844048
 20
97.22406088542776
 30
0.0
  0
SEQEND
  5
438
330
435
100
AcDbEntity
  8
LINIE
 48
10.0
  0
ELLIPSE
  5
450
330
75
100
AcDbEntity
  8
LINIE
 48
10.0
100
AcDbEllipse
 10
91.84528780001231
 20
107.24708019924
 30
0.0
 11
80.80617616113851
 21
10.73544433125592
 31
0.0
210
0.0
220
0.0
230
1.0
 40
0.1159669395538344
 41
4.639049209339916
 42
4.662421959650995
  0
ELLIPSE
  5
451
330
75
100
AcDbEntity
  8
LINIE
 48
10.0
100
AcDbEllipse
 10
91.8452878000123
 20
107.24708019924
 30
0.0
 11
-80.80617616113856
 21
10.7354443312559
 31
0.0
210
0.0
220
0.0
230
1.0
 40
0.1159669395538343
 41
1.528267520786936
 42
1.551640271098015
  0
POLYLINE
  5
452
330
75
100
AcDbEntity
  8
LINIE
 48
10.0
100
AcDb2dPolyline
 66
     1
 10
0.0
 20
0.0
 30
0.0
 70
   128
  0
VERTEX
  5
453
330
452
100
AcDbEntity
  8
LINIE
 48
10.0
100
AcDbVertex
100
AcDb2dVertex
 10
86.96590255844048
 20
98.50281595420677
 30
0.0
  0
VERTEX
  5
454
330
452
100
AcDbEntity
  8
LINIE
 48
10.0
100
AcDbVertex
100
AcDb2dVertex
 10
86.9741780673211
 20
98.49612354469137
 30
0.0
  0
VERTEX
  5
456
330
452
100
AcDbEntity
  8
LINIE
 48
10.0
100
AcDbVertex
100
AcDb2dVertex
 10
86.98246072875909
 20
98.48942696285085
 30
0.0
  0
VERTEX
  5
457
330
452
100
AcDbEntity
  8
LINIE
 48
10.0
100
AcDbVertex
100
AcDb2dVertex
 10
86.99074577438286
 20
98.48272680473165
 30
0.0
  0
VERTEX
  5
458
330
452
100
AcDbEntity
  8
LINIE
 48
10.0
100
AcDbVertex
100
AcDb2dVertex
 10
86.99903797256402
 20
98.47602247428731
 30
0.0
  0
VERTEX
  5
459
330
452
100
AcDbEntity
  8
LINIE
 48
10.0
100
AcDbVertex
100
AcDb2dVertex
 10
87.00733255493096
 20
98.46931456756429
 30
0.0
  0
VERTEX
  5
45A
330
452
100
AcDbEntity
  8
LINIE
 48
10.0
100
AcDbVertex
100
AcDb2dVertex
 10
87.01563428985528
 20
98.46260308456258
 30
0.0
  0
VERTEX
  5
45B
330
452
100
AcDbEntity
  8
LINIE
 48
10.0
100
AcDbVertex
100
AcDb2dVertex
 10
87.02394079315117
 20
98.45588742923574
 30
0.0
  0
VERTEX
  5
45C
330
452
100
AcDbEntity
  8
LINIE
 48
10.0
100
AcDbVertex
100
AcDb2dVertex
 10
87.03225206481866
 20
98.44916819763021
 30
0.0
  0
VERTEX
  5
45D
330
452
100
AcDbEntity
  8
LINIE
 48
10.0
100
AcDbVertex
100
AcDb2dVertex
 10
87.04056572067193
 20
98.44244538974599
 30
0.0
  0
VERTEX
  5
45E
330
452
100
AcDbEntity
  8
LINIE
 48
10.0
100
AcDbVertex
100
AcDb2dVertex
 10
87.04888652908257
 20
98.43571840953664
 30
0.0
  0
VERTEX
  5
45F
330
452
100
AcDbEntity
  8
LINIE
 48
10.0
100
AcDbVertex
100
AcDb2dVertex
 10
87.05721449005059
 20
98.42898725700216
 30
0.0
  0
VERTEX
  5
460
330
452
100
AcDbEntity
  8
LINIE
 48
10.0
100
AcDbVertex
100
AcDb2dVertex
 10
87.0655448352044
 20
98.42225252818899
 30
0.0
  0
VERTEX
  5
461
330
452
100
AcDbEntity
  8
LINIE
 48
10.0
100
AcDbVertex
100
AcDb2dVertex
 10
87.07387994872979
 20
98.41551422309713
 30
0.0
  0
VERTEX
  5
462
330
452
100
AcDbEntity
  8
LINIE
 48
10.0
100
AcDbVertex
100
AcDb2dVertex
 10
87.08221983062676
 20
98.40877174568014
 30
0.0
  0
VERTEX
  5
463
330
452
100
AcDbEntity
  8
LINIE
 48
10.0
100
AcDbVertex
100
AcDb2dVertex
 10
87.09056686508111
 20
98.40202569198446
 30
0.0
  0
VERTEX
  5
464
330
452
100
AcDbEntity
  8
LINIE
 48
10.0
100
AcDbVertex
100
AcDb2dVertex
 10
87.09891628372124
 20
98.39527546596364
 30
0.0
  0
VERTEX
  5
465
330
452
100
AcDbEntity
  8
LINIE
 48
10.0
100
AcDbVertex
100
AcDb2dVertex
 10
87.10727285491875
 20
98.38852166366415
 30
0.0
  0
VERTEX
  5
466
330
452
100
AcDbEntity
  8
LINIE
 48
10.0
100
AcDbVertex
100
AcDb2dVertex
 10
87.11563419448784
 20
98.38176428508596
 30
0.0
  0
VERTEX
  5
467
330
452
100
AcDbEntity
  8
LINIE
 48
10.0
100
AcDbVertex
100
AcDb2dVertex
 10
87.12399791824273
 20
98.37500273418264
 30
0.0
  0
VERTEX
  5
468
330
452
100
AcDbEntity
  8
LINIE
 48
10.0
100
AcDbVertex
100
AcDb2dVertex
 10
87.13236879455498
 20
98.36823701095418
 30
0.0
  0
VERTEX
  5
469
330
452
100
AcDbEntity
  8
LINIE
 48
10.0
100
AcDbVertex
100
AcDb2dVertex
 10
87.14074443923882
 20
98.36146771144704
 30
0.0
  0
VERTEX
  5
46A
330
452
100
AcDbEntity
  8
LINIE
 48
10.0
100
AcDbVertex
100
AcDb2dVertex
 10
87.14912723648003
 20
98.35469423961477
 30
0.0
  0
VERTEX
  5
46B
330
452
100
AcDbEntity
  8
LINIE
 48
10.0
100
AcDbVertex
100
AcDb2dVertex
 10
87.15751241790703
 20
98.34791719150381
 30
0.0
  0
VERTEX
  5
46C
330
452
100
AcDbEntity
  8
LINIE
 48
10.0
100
AcDbVertex
100
AcDb2dVertex
 10
87.16590236770562
 20
98.34113656711416
 30
0.0
  0
SEQEND
  5
455
330
452
100
AcDbEntity
  8
LINIE
 48
10.0
  0
POLYLINE
  5
46D
330
75
100
AcDbEntity
  8
LINIE
 48
10.0
100
AcDb2dPolyline
 66
     1
 10
0.0
 20
0.0
 30
0.0
 70
   128
  0
VERTEX
  5
46E
330
46D
100
AcDbEntity
  8
LINIE
 48
10.0
100
AcDbVertex
100
AcDb2dVertex
 10
89.05272554504326
 20
98.08359085750417
 30
0.0
  0
VERTEX
  5
46F
330
46D
100
AcDbEntity
  8
LINIE
 48
10.0
100
AcDbVertex
100
AcDb2dVertex
 10
89.10974573242119
 20
98.07320892047719
 30
0.0
  0
VERTEX
  5
471
330
46D
100
AcDbEntity
  8
LINIE
 48
10.0
100
AcDbVertex
100
AcDb2dVertex
 10
89.16521381484917
 20
98.05767893028097
 30
0.0
  0
VERTEX
  5
472
330
46D
100
AcDbEntity
  8
LINIE
 48
10.0
100
AcDbVertex
100
AcDb2dVertex
 10
89.2177755747979
 20
98.03723930549459
 30
0.0
  0
VERTEX
  5
473
330
46D
100
AcDbEntity
  8
LINIE
 48
10.0
100
AcDbVertex
100
AcDb2dVertex
 10
89.26637243377617
 20
98.01260530185537
 30
0.0
  0
VERTEX
  5
474
330
46D
100
AcDbEntity
  8
LINIE
 48
10.0
100
AcDbVertex
100
AcDb2dVertex
 10
89.31000064956597
 20
97.98463463020162
 30
0.0
  0
VERTEX
  5
475
330
46D
100
AcDbEntity
  8
LINIE
 48
10.0
100
AcDbVertex
100
AcDb2dVertex
 10
89.34856008636407
 20
97.95348941516714
 30
0.0
  0
VERTEX
  5
476
330
46D
100
AcDbEntity
  8
LINIE
 48
10.0
100
AcDbVertex
100
AcDb2dVertex
 10
89.38309501754693
 20
97.91837453079061
 30
0.0
  0
VERTEX
  5
477
330
46D
100
AcDbEntity
  8
LINIE
 48
10.0
100
AcDbVertex
100
AcDb2dVertex
 10
89.41259931671075
 20
97.88001238536672
 30
0.0
  0
VERTEX
  5
478
330
46D
100
AcDbEntity
  8
LINIE
 48
10.0
100
AcDbVertex
100
AcDb2dVertex
 10
89.4359905635064
 20
97.83919393253164
 30
0.0
  0
VERTEX
  5
479
330
46D
100
AcDbEntity
  8
LINIE
 48
10.0
100
AcDbVertex
100
AcDb2dVertex
 10
89.45265125381402
 20
97.79684602451162
 30
0.0
  0
VERTEX
  5
47A
330
46D
100
AcDbEntity
  8
LINIE
 48
10.0
100
AcDbVertex
100
AcDb2dVertex
 10
89.46260046111992
 20
97.75406717490987
 30
0.0
  0
VERTEX
  5
47B
330
46D
100
AcDbEntity
  8
LINIE
 48
10.0
100
AcDbVertex
100
AcDb2dVertex
 10
89.46590255844048
 20
97.71196901035146
 30
0.0
  0
VERTEX
  5
47C
330
46D
100
AcDbEntity
  8
LINIE
 48
10.0
100
AcDbVertex
100
AcDb2dVertex
 10
89.46260046111992
 20
97.67002820205526
 30
0.0
  0
VERTEX
  5
47D
330
46D
100
AcDbEntity
  8
LINIE
 48
10.0
100
AcDbVertex
100
AcDb2dVertex
 10
89.45265125381402
 20
97.62771009635763
 30
0.0
  0
VERTEX
  5
47E
330
46D
100
AcDbEntity
  8
LINIE
 48
10.0
100
AcDbVertex
100
AcDb2dVertex
 10
89.4359905635064
 20
97.5861072463973
 30
0.0
  0
VERTEX
  5
47F
330
46D
100
AcDbEntity
  8
LINIE
 48
10.0
100
AcDbVertex
100
AcDb2dVertex
 10
89.41259931671075
 20
97.54629491996604
 30
0.0
  0
VERTEX
  5
480
330
46D
100
AcDbEntity
  8
LINIE
 48
10.0
100
AcDbVertex
100
AcDb2dVertex
 10
89.38309501754693
 20
97.50912844371633
 30
0.0
  0
VERTEX
  5
481
330
46D
100
AcDbEntity
  8
LINIE
 48
10.0
100
AcDbVertex
100
AcDb2dVertex
 10
89.34856008636407
 20
97.47531174850301
 30
0.0
  0
VERTEX
  5
482
330
46D
100
AcDbEntity
  8
LINIE
 48
10.0
100
AcDbVertex
100
AcDb2dVertex
 10
89.31000064956597
 20
97.44548379611806
 30
0.0
  0
VERTEX
  5
483
330
46D
100
AcDbEntity
  8
LINIE
 48
10.0
100
AcDbVertex
100
AcDb2dVertex
 10
89.26637243377617
 20
97.41883038711385
 30
0.0
  0
VERTEX
  5
484
330
46D
100
AcDbEntity
  8
LINIE
 48
10.0
100
AcDbVertex
100
AcDb2dVertex
 10
89.2177755747979
 20
97.39545761775808
 30
0.0
  0
VERTEX
  5
485
330
46D
100
AcDbEntity
  8
LINIE
 48
10.0
100
AcDbVertex
100
AcDb2dVertex
 10
89.16521381484917
 20
97.37613558006124
 30
0.0
  0
VERTEX
  5
486
330
46D
100
AcDbEntity
  8
LINIE
 48
10.0
100
AcDbVertex
100
AcDb2dVertex
 10
89.10974573242119
 20
97.3614990634902
 30
0.0
  0
VERTEX
  5
487
330
46D
100
AcDbEntity
  8
LINIE
 48
10.0
100
AcDbVertex
100
AcDb2dVertex
 10
89.05272554504326
 20
97.35173582267599
 30
0.0
  0
SEQEND
  5
470
330
46D
100
AcDbEntity
  8
LINIE
 48
10.0
  0
LINE
  5
488
330
75
100
AcDbEntity
  8
LINIE
 48
10.0
100
AcDbLine
 10
86.96590255844048
 20
99.4901640450012
 30
0.0
 11
86.96590255844048
 21
100.9803638652376
 31
0.0
  0
LINE
  5
489
330
75
100
AcDbEntity
  8
LINIE
 48
10.0
100
AcDbLine
 10
87.16590236770562
 20
99.41947459411458
 30
0.0
 11
86.96590255844048
 21
99.49016391467885
 31
0.0
  0
ELLIPSE
  5
48A
330
75
100
AcDbEntity
  8
LINIE
 48
10.0
100
AcDbEllipse
 10
91.84528780001231
 20
107.24708019924
 30
0.0
 11
80.80866796595001
 21
12.43420794029965
 31
0.0
210
0.0
220
0.0
230
1.0
 40
0.086139484114196
 41
4.641200995586376
 42
4.664573745897455
  0
ELLIPSE
  5
48B
330
75
100
AcDbEntity
  8
LINIE
 48
10.0
100
AcDbEllipse
 10
91.8452878000123
 20
107.24708019924
 30
0.0
 11
-80.80866796595007
 21
12.43420794029963
 31
0.0
210
0.0
220
0.0
230
1.0
 40
0.0861394841141959
 41
1.526115734540463
 42
1.549488484851542
  0
LINE
  5
48C
330
75
100
AcDbEntity
  8
LINIE
 48
10.0
100
AcDbLine
 10
86.96590255844048
 20
100.9803640766127
 30
0.0
 11
87.16590236770562
 21
100.8485931081755
 31
0.0
  0
POLYLINE
  5
48D
330
75
100
AcDbEntity
  8
LINIE
 48
10.0
100
AcDb2dPolyline
 66
     1
 10
0.0
 20
0.0
 30
0.0
 70
   128
  0
VERTEX
  5
48E
330
48D
100
AcDbEntity
  8
LINIE
 48
10.0
100
AcDbVertex
100
AcDb2dVertex
 10
89.05272554504326
 20
100.5527692956908
 30
0.0
  0
VERTEX
  5
48F
330
48D
100
AcDbEntity
  8
LINIE
 48
10.0
100
AcDbVertex
100
AcDb2dVertex
 10
89.10974573242119
 20
100.5408000869735
 30
0.0
  0
VERTEX
  5
491
330
48D
100
AcDbEntity
  8
LINIE
 48
10.0
100
AcDbVertex
100
AcDb2dVertex
 10
89.16521381484917
 20
100.5228894872649
 30
0.0
  0
VERTEX
  5
492
330
48D
100
AcDbEntity
  8
LINIE
 48
10.0
100
AcDbVertex
100
AcDb2dVertex
 10
89.2177755747979
 20
100.4993033332808
 30
0.0
  0
VERTEX
  5
493
330
48D
100
AcDbEntity
  8
LINIE
 48
10.0
100
AcDbVertex
100
AcDb2dVertex
 10
89.26637243377617
 20
100.470859996794
 30
0.0
  0
VERTEX
  5
494
330
48D
100
AcDbEntity
  8
LINIE
 48
10.0
100
AcDbVertex
100
AcDb2dVertex
 10
89.31000064956597
 20
100.4385393781646
 30
0.0
  0
VERTEX
  5
495
330
48D
100
AcDbEntity
  8
LINIE
 48
10.0
100
AcDbVertex
100
AcDb2dVertex
 10
89.34856008636407
 20
100.4025196952803
 30
0.0
  0
VERTEX
  5
496
330
48D
100
AcDbEntity
  8
LINIE
 48
10.0
100
AcDbVertex
100
AcDb2dVertex
 10
89.38309501754693
 20
100.36186992359
 30
0.0
  0
VERTEX
  5
497
330
48D
100
AcDbEntity
  8
LINIE
 48
10.0
100
AcDbVertex
100
AcDb2dVertex
 10
89.41259931671075
 20
100.3174143953307
 30
0.0
  0
VERTEX
  5
498
330
48D
100
AcDbEntity
  8
LINIE
 48
10.0
100
AcDbVertex
100
AcDb2dVertex
 10
89.4359905635064
 20
100.2700573129637
 30
0.0
  0
VERTEX
  5
499
330
48D
100
AcDbEntity
  8
LINIE
 48
10.0
100
AcDbVertex
100
AcDb2dVertex
 10
89.45265125381402
 20
100.2208626193984
 30
0.0
  0
VERTEX
  5
49A
330
48D
100
AcDbEntity
  8
LINIE
 48
10.0
100
AcDbVertex
100
AcDb2dVertex
 10
89.46260046111992
 20
100.1711064500792
 30
0.0
  0
VERTEX
  5
49B
330
48D
100
AcDbEntity
  8
LINIE
 48
10.0
100
AcDbVertex
100
AcDb2dVertex
 10
89.46590255844048
 20
100.1220804376586
 30
0.0
  0
VERTEX
  5
49C
330
48D
100
AcDbEntity
  8
LINIE
 48
10.0
100
AcDbVertex
100
AcDb2dVertex
 10
89.46260046111992
 20
100.0731712503417
 30
0.0
  0
VERTEX
  5
49D
330
48D
100
AcDbEntity
  8
LINIE
 48
10.0
100
AcDbVertex
100
AcDb2dVertex
 10
89.45265125381402
 20
100.0237595958693
 30
0.0
  0
VERTEX
  5
49E
330
48D
100
AcDbEntity
  8
LINIE
 48
10.0
100
AcDbVertex
100
AcDb2dVertex
 10
89.4359905635064
 20
99.97512220573263
 30
0.0
  0
VERTEX
  5
49F
330
48D
100
AcDbEntity
  8
LINIE
 48
10.0
100
AcDbVertex
100
AcDb2dVertex
 10
89.41259931671075
 20
99.92851614188985
 30
0.0
  0
VERTEX
  5
4A0
330
48D
100
AcDbEntity
  8
LINIE
 48
10.0
100
AcDbVertex
100
AcDb2dVertex
 10
89.38309501754693
 20
99.88495408725576
 30
0.0
  0
VERTEX
  5
4A1
330
48D
100
AcDbEntity
  8
LINIE
 48
10.0
100
AcDbVertex
100
AcDb2dVertex
 10
89.34856008636407
 20
99.84527467918233
 30
0.0
  0
VERTEX
  5
4A2
330
48D
100
AcDbEntity
  8
LINIE
 48
10.0
100
AcDbVertex
100
AcDb2dVertex
 10
89.31000064956597
 20
99.81023906898336
 30
0.0
  0
VERTEX
  5
4A3
330
48D
100
AcDbEntity
  8
LINIE
 48
10.0
100
AcDbVertex
100
AcDb2dVertex
 10
89.26637243377617
 20
99.77890311908559
 30
0.0
  0
VERTEX
  5
4A4
330
48D
100
AcDbEntity
  8
LINIE
 48
10.0
100
AcDbVertex
100
AcDb2dVertex
 10
89.2177755747979
 20
99.75140213203268
 30
0.0
  0
VERTEX
  5
4A5
330
48D
100
AcDbEntity
  8
LINIE
 48
10.0
100
AcDbVertex
100
AcDb2dVertex
 10
89.16521381484917
 20
99.72865103912191
 30
0.0
  0
VERTEX
  5
4A6
330
48D
100
AcDbEntity
  8
LINIE
 48
10.0
100
AcDbVertex
100
AcDb2dVertex
 10
89.10974573242119
 20
99.71140801143484
 30
0.0
  0
VERTEX
  5
4A7
330
48D
100
AcDbEntity
  8
LINIE
 48
10.0
100
AcDbVertex
100
AcDb2dVertex
 10
89.05272554504326
 20
99.6999007387145
 30
0.0
  0
SEQEND
  5
490
330
48D
100
AcDbEntity
  8
LINIE
 48
10.0
  0
LINE
  5
4A8
330
75
100
AcDbEntity
  8
LINIE
 48
10.0
100
AcDbLine
 10
86.96590255844048
 20
102.0952815414752
 30
0.0
 11
86.96590255844048
 21
103.1841438622735
 31
0.0
  0
LINE
  5
4A9
330
75
100
AcDbEntity
  8
LINIE
 48
10.0
100
AcDbLine
 10
87.16590236770562
 20
102.0662575883849
 30
0.0
 11
86.96590255844048
 21
102.0952814741118
 31
0.0
  0
ELLIPSE
  5
4AA
330
75
100
AcDbEntity
  8
LINIE
 48
10.0
100
AcDbEllipse
 10
91.8452878000123
 20
107.24708019924
 30
0.0
 11
80.81255636546522
 21
13.59126199306923
 31
0.0
210
0.0
220
0.0
230
1.0
 40
0.0529934231713542
 41
4.645542358665949
 42
4.66891510897703
  0
ELLIPSE
  5
4AB
330
75
100
AcDbEntity
  8
LINIE
 48
10.0
100
AcDbEllipse
 10
91.84528780001231
 20
107.24708019924
 30
0.0
 11
-80.81255636546533
 21
13.59126199306922
 31
0.0
210
0.0
220
0.0
230
0.9999999999999998
 40
0.0529934231713542
 41
1.521774371460868
 42
1.545147121771948
  0
LINE
  5
4AC
330
75
100
AcDbEntity
  8
LINIE
 48
10.0
100
AcDbLine
 10
86.96590255844048
 20
103.731797329901
 30
0.0
 11
87.16590236770562
 21
103.6356943769438
 31
0.0
  0
POLYLINE
  5
4AD
330
75
100
AcDbEntity
  8
LINIE
 48
10.0
100
AcDb2dPolyline
 66
     1
 10
0.0
 20
0.0
 30
0.0
 70
   128
  0
VERTEX
  5
4AE
330
4AD
100
AcDbEntity
  8
LINIE
 48
10.0
100
AcDbVertex
100
AcDb2dVertex
 10
89.05272554504326
 20
103.3145216031058
 30
0.0
  0
VERTEX
  5
4AF
330
4AD
100
AcDbEntity
  8
LINIE
 48
10.0
100
AcDbVertex
100
AcDb2dVertex
 10
89.10974573242119
 20
103.301488153456
 30
0.0
  0
VERTEX
  5
4B1
330
4AD
100
AcDbEntity
  8
LINIE
 48
10.0
100
AcDbVertex
100
AcDb2dVertex
 10
89.16521381484917
 20
103.2819789571746
 30
0.0
  0
VERTEX
  5
4B2
330
4AD
100
AcDbEntity
  8
LINIE
 48
10.0
100
AcDbVertex
100
AcDb2dVertex
 10
89.2177755747979
 20
103.2562774343474
 30
0.0
  0
VERTEX
  5
4B3
330
4AD
100
AcDbEntity
  8
LINIE
 48
10.0
100
AcDbVertex
100
AcDb2dVertex
 10
89.26637243377617
 20
103.2252678198798
 30
0.0
  0
VERTEX
  5
4B4
330
4AD
100
AcDbEntity
  8
LINIE
 48
10.0
100
AcDbVertex
100
AcDb2dVertex
 10
89.31000064956597
 20
103.1900104804023
 30
0.0
  0
VERTEX
  5
4B5
330
4AD
100
AcDbEntity
  8
LINIE
 48
10.0
100
AcDbVertex
100
AcDb2dVertex
 10
89.34856008636407
 20
103.1506901903135
 30
0.0
  0
VERTEX
  5
4B6
330
4AD
100
AcDbEntity
  8
LINIE
 48
10.0
100
AcDbVertex
100
AcDb2dVertex
 10
89.38309501754693
 20
103.1062823457701
 30
0.0
  0
VERTEX
  5
4B7
330
4AD
100
AcDbEntity
  8
LINIE
 48
10.0
100
AcDbVertex
100
AcDb2dVertex
 10
89.41259931671075
 20
103.0576765460952
 30
0.0
  0
VERTEX
  5
4B8
330
4AD
100
AcDbEntity
  8
LINIE
 48
10.0
100
AcDbVertex
100
AcDb2dVertex
 10
89.4359905635064
 20
103.0058494133933
 30
0.0
  0
VERTEX
  5
4B9
330
4AD
100
AcDbEntity
  8
LINIE
 48
10.0
100
AcDbVertex
100
AcDb2dVertex
 10
89.45265125381402
 20
102.9519581718428
 30
0.0
  0
VERTEX
  5
4BA
330
4AD
100
AcDbEntity
  8
LINIE
 48
10.0
100
AcDbVertex
100
AcDb2dVertex
 10
89.46260046111992
 20
102.8973999543173
 30
0.0
  0
VERTEX
  5
4BB
330
4AD
100
AcDbEntity
  8
LINIE
 48
10.0
100
AcDbVertex
100
AcDb2dVertex
 10
89.46590255844048
 20
102.8435879869445
 30
0.0
  0
VERTEX
  5
4BC
330
4AD
100
AcDbEntity
  8
LINIE
 48
10.0
100
AcDbVertex
100
AcDb2dVertex
 10
89.46260046111992
 20
102.7898490352614
 30
0.0
  0
VERTEX
  5
4BD
330
4AD
100
AcDbEntity
  8
LINIE
 48
10.0
100
AcDbVertex
100
AcDb2dVertex
 10
89.45265125381402
 20
102.7355033082945
 30
0.0
  0
VERTEX
  5
4BE
330
4AD
100
AcDbEntity
  8
LINIE
 48
10.0
100
AcDbVertex
100
AcDb2dVertex
 10
89.4359905635064
 20
102.6819562835677
 30
0.0
  0
VERTEX
  5
4BF
330
4AD
100
AcDbEntity
  8
LINIE
 48
10.0
100
AcDbVertex
100
AcDb2dVertex
 10
89.41259931671075
 20
102.6305937690718
 30
0.0
  0
VERTEX
  5
4C0
330
4AD
100
AcDbEntity
  8
LINIE
 48
10.0
100
AcDbVertex
100
AcDb2dVertex
 10
89.38309501754693
 20
102.5825399084075
 30
0.0
  0
VERTEX
  5
4C1
330
4AD
100
AcDbEntity
  8
LINIE
 48
10.0
100
AcDbVertex
100
AcDb2dVertex
 10
89.34856008636407
 20
102.5387316865905
 30
0.0
  0
VERTEX
  5
4C2
330
4AD
100
AcDbEntity
  8
LINIE
 48
10.0
100
AcDbVertex
100
AcDb2dVertex
 10
89.31000064956597
 20
102.5000196619017
 30
0.0
  0
VERTEX
  5
4C3
330
4AD
100
AcDbEntity
  8
LINIE
 48
10.0
100
AcDbVertex
100
AcDb2dVertex
 10
89.26637243377617
 20
102.4653708858473
 30
0.0
  0
VERTEX
  5
4C4
330
4AD
100
AcDbEntity
  8
LINIE
 48
10.0
100
AcDbVertex
100
AcDb2dVertex
 10
89.2177755747979
 20
102.434943310736
 30
0.0
  0
VERTEX
  5
4C5
330
4AD
100
AcDbEntity
  8
LINIE
 48
10.0
100
AcDbVertex
100
AcDb2dVertex
 10
89.16521381484917
 20
102.4097579641326
 30
0.0
  0
VERTEX
  5
4C6
330
4AD
100
AcDbEntity
  8
LINIE
 48
10.0
100
AcDbVertex
100
AcDb2dVertex
 10
89.10974573242119
 20
102.3906615300162
 30
0.0
  0
VERTEX
  5
4C7
330
4AD
100
AcDbEntity
  8
LINIE
 48
10.0
100
AcDbVertex
100
AcDb2dVertex
 10
89.05272554504326
 20
102.3779138846381
 30
0.0
  0
SEQEND
  5
4B0
330
4AD
100
AcDbEntity
  8
LINIE
 48
10.0
  0
LINE
  5
4C8
330
75
100
AcDbEntity
  8
LINIE
 48
10.0
100
AcDbLine
 10
86.96590255844048
 20
104.9255573603663
 30
0.0
 11
86.96590255844048
 21
105.2938772494821
 31
0.0
  0
LINE
  5
4C9
330
75
100
AcDbEntity
  8
LINIE
 48
10.0
100
AcDbLine
 10
87.16590236770562
 20
104.939466707228
 30
0.0
 11
86.96590255844048
 21
104.9255573673232
 31
0.0
  0
ELLIPSE
  5
4CA
330
75
100
AcDbEntity
  8
LINIE
 48
10.0
100
AcDbEllipse
 10
91.8452878000123
 20
107.24708019924
 30
0.0
 11
80.81536836685856
 21
14.17653946223555
 31
0.0
210
0.0
220
0.0
230
1.0
 40
0.0178811353916709
 41
4.651318013831589
 42
4.67469076414267
  0
ELLIPSE
  5
4CB
330
75
100
AcDbEntity
  8
LINIE
 48
10.0
100
AcDbEllipse
 10
91.84528780001231
 20
107.24708019924
 30
0.0
 11
-80.81536836685868
 21
14.17653946223554
 31
0.0
210
0.0
220
0.0
230
1.0
 40
0.0178811353916709
 41
1.515998716295005
 42
1.539371466606085
  0
LINE
  5
4CC
330
75
100
AcDbEntity
  8
LINIE
 48
10.0
100
AcDbLine
 10
86.96590255844048
 20
106.6368655411584
 30
0.0
 11
87.16590236770562
 21
106.5806304587109
 31
0.0
  0
POLYLINE
  5
4CD
330
75
100
AcDbEntity
  8
LINIE
 48
10.0
100
AcDb2dPolyline
 66
     1
 10
0.0
 20
0.0
 30
0.0
 70
   128
  0
VERTEX
  5
4CE
330
4CD
100
AcDbEntity
  8
LINIE
 48
10.0
100
AcDbVertex
100
AcDb2dVertex
 10
89.05272554504326
 20
106.2481455428584
 30
0.0
  0
VERTEX
  5
4CF
330
4CD
100
AcDbEntity
  8
LINIE
 48
10.0
100
AcDbVertex
100
AcDb2dVertex
 10
89.10974573242119
 20
106.2346173746569
 30
0.0
  0
VERTEX
  5
4D1
330
4CD
100
AcDbEntity
  8
LINIE
 48
10.0
100
AcDbVertex
100
AcDb2dVertex
 10
89.16521381484917
 20
106.2143627477868
 30
0.0
  0
VERTEX
  5
4D2
330
4CD
100
AcDbEntity
  8
LINIE
 48
10.0
100
AcDbVertex
100
AcDb2dVertex
 10
89.2177755747979
 20
106.1876691801532
 30
0.0
  0
VERTEX
  5
4D3
330
4CD
100
AcDbEntity
  8
LINIE
 48
10.0
100
AcDbVertex
100
AcDb2dVertex
 10
89.26637243377617
 20
106.1554482502921
 30
0.0
  0
VERTEX
  5
4D4
330
4CD
100
AcDbEntity
  8
LINIE
 48
10.0
100
AcDbVertex
100
AcDb2dVertex
 10
89.31000064956597
 20
106.1187947465165
 30
0.0
  0
VERTEX
  5
4D5
330
4CD
100
AcDbEntity
  8
LINIE
 48
10.0
100
AcDbVertex
100
AcDb2dVertex
 10
89.34856008636407
 20
106.0778926981671
 30
0.0
  0
VERTEX
  5
4D6
330
4CD
100
AcDbEntity
  8
LINIE
 48
10.0
100
AcDbVertex
100
AcDb2dVertex
 10
89.38309501754693
 20
106.031667284487
 30
0.0
  0
VERTEX
  5
4D7
330
4CD
100
AcDbEntity
  8
LINIE
 48
10.0
100
AcDbVertex
100
AcDb2dVertex
 10
89.41259931671075
 20
105.9810353739245
 30
0.0
  0
VERTEX
  5
4D8
330
4CD
100
AcDbEntity
  8
LINIE
 48
10.0
100
AcDbVertex
100
AcDb2dVertex
 10
89.4359905635064
 20
105.9270040614588
 30
0.0
  0
VERTEX
  5
4D9
330
4CD
100
AcDbEntity
  8
LINIE
 48
10.0
100
AcDbVertex
100
AcDb2dVertex
 10
89.45265125381402
 20
105.8707716984732
 30
0.0
  0
VERTEX
  5
4DA
330
4CD
100
AcDbEntity
  8
LINIE
 48
10.0
100
AcDbVertex
100
AcDb2dVertex
 10
89.46260046111992
 20
105.813795022486
 30
0.0
  0
VERTEX
  5
4DB
330
4CD
100
AcDbEntity
  8
LINIE
 48
10.0
100
AcDbVertex
100
AcDb2dVertex
 10
89.46590255844048
 20
105.7575495464785
 30
0.0
  0
VERTEX
  5
4DC
330
4CD
100
AcDbEntity
  8
LINIE
 48
10.0
100
AcDbVertex
100
AcDb2dVertex
 10
89.46260046111992
 20
105.7013288063987
 30
0.0
  0
VERTEX
  5
4DD
330
4CD
100
AcDbEntity
  8
LINIE
 48
10.0
100
AcDbVertex
100
AcDb2dVertex
 10
89.45265125381402
 20
105.64442410302
 30
0.0
  0
VERTEX
  5
4DE
330
4CD
100
AcDbEntity
  8
LINIE
 48
10.0
100
AcDbVertex
100
AcDb2dVertex
 10
89.4359905635064
 20
105.5883081181033
 30
0.0
  0
VERTEX
  5
4DF
330
4CD
100
AcDbEntity
  8
LINIE
 48
10.0
100
AcDbVertex
100
AcDb2dVertex
 10
89.41259931671075
 20
105.5344338638766
 30
0.0
  0
VERTEX
  5
4E0
330
4CD
100
AcDbEntity
  8
LINIE
 48
10.0
100
AcDbVertex
100
AcDb2dVertex
 10
89.38309501754693
 20
105.4839888138755
 30
0.0
  0
VERTEX
  5
4E1
330
4CD
100
AcDbEntity
  8
LINIE
 48
10.0
100
AcDbVertex
100
AcDb2dVertex
 10
89.34856008636407
 20
105.4379661304934
 30
0.0
  0
VERTEX
  5
4E2
330
4CD
100
AcDbEntity
  8
LINIE
 48
10.0
100
AcDbVertex
100
AcDb2dVertex
 10
89.31000064956597
 20
105.3972698671801
 30
0.0
  0
VERTEX
  5
4E3
330
4CD
100
AcDbEntity
  8
LINIE
 48
10.0
100
AcDbVertex
100
AcDb2dVertex
 10
89.26637243377617
 20
105.3608222229464
 30
0.0
  0
VERTEX
  5
4E4
330
4CD
100
AcDbEntity
  8
LINIE
 48
10.0
100
AcDbVertex
100
AcDb2dVertex
 10
89.2177755747979
 20
105.3287982864363
 30
0.0
  0
VERTEX
  5
4E5
330
4CD
100
AcDbEntity
  8
LINIE
 48
10.0
100
AcDbVertex
100
AcDb2dVertex
 10
89.16521381484917
 20
105.302279285906
 30
0.0
  0
VERTEX
  5
4E6
330
4CD
100
AcDbEntity
  8
LINIE
 48
10.0
100
AcDbVertex
100
AcDb2dVertex
 10
89.10974573242119
 20
105.2821642084105
 30
0.0
  0
VERTEX
  5
4E7
330
4CD
100
AcDbEntity
  8
LINIE
 48
10.0
100
AcDbVertex
100
AcDb2dVertex
 10
89.05272554504326
 20
105.2687327487452
 30
0.0
  0
SEQEND
  5
4D0
330
4CD
100
AcDbEntity
  8
LINIE
 48
10.0
  0
LINE
  5
4E8
330
75
100
AcDbEntity
  8
LINIE
 48
10.0
100
AcDbLine
 10
87.16590236770562
 20
107.9135299397691
 30
0.0
 11
86.96590255844048
 21
107.8572948573215
 31
0.0
  0
ELLIPSE
  5
4E9
330
75
100
AcDbEntity
  8
LINIE
 48
10.0
100
AcDbEllipse
 10
91.8452878000123
 20
107.24708019924
 30
0.0
 11
-80.81536836685851
 21
-14.17653946223555
 31
0.0
210
0.0
220
0.0
230
0.9999999999999998
 40
0.0178811353916711
 41
4.743813840573655
 42
4.767186590884735
  0
ELLIPSE
  5
4EA
330
75
100
AcDbEntity
  8
LINIE
 48
10.0
100
AcDbEllipse
 10
91.84528780001231
 20
107.24708019924
 30
0.0
 11
80.81536836685874
 21
-14.17653946223554
 31
0.0
210
0.0
220
0.0
230
1.0
 40
0.0178811353916711
 41
1.608494543036485
 42
1.631867293347563
  0
LINE
  5
4EB
330
75
100
AcDbEntity
  8
LINIE
 48
10.0
100
AcDbLine
 10
86.96590255844048
 20
109.5686030311568
 30
0.0
 11
87.16590236770562
 21
109.554693691252
 31
0.0
  0
LINE
  5
4EC
330
75
100
AcDbEntity
  8
LINIE
 48
10.0
100
AcDbLine
 10
86.96590255844048
 20
109.2002831489979
 30
0.0
 11
86.96590255844048
 21
109.5686030381137
 31
0.0
  0
POLYLINE
  5
4ED
330
75
100
AcDbEntity
  8
LINIE
 48
10.0
100
AcDb2dPolyline
 66
     1
 10
0.0
 20
0.0
 30
0.0
 70
   128
  0
VERTEX
  5
4EE
330
4ED
100
AcDbEntity
  8
LINIE
 48
10.0
100
AcDbVertex
100
AcDb2dVertex
 10
89.05272554504326
 20
109.2254276497348
 30
0.0
  0
VERTEX
  5
4EF
330
4ED
100
AcDbEntity
  8
LINIE
 48
10.0
100
AcDbVertex
100
AcDb2dVertex
 10
89.10974573242119
 20
109.2119961900695
 30
0.0
  0
VERTEX
  5
4F1
330
4ED
100
AcDbEntity
  8
LINIE
 48
10.0
100
AcDbVertex
100
AcDb2dVertex
 10
89.16521381484917
 20
109.1918811125739
 30
0.0
  0
VERTEX
  5
4F2
330
4ED
100
AcDbEntity
  8
LINIE
 48
10.0
100
AcDbVertex
100
AcDb2dVertex
 10
89.2177755747979
 20
109.1653621120436
 30
0.0
  0
VERTEX
  5
4F3
330
4ED
100
AcDbEntity
  8
LINIE
 48
10.0
100
AcDbVertex
100
AcDb2dVertex
 10
89.26637243377617
 20
109.1333381755336
 30
0.0
  0
VERTEX
  5
4F4
330
4ED
100
AcDbEntity
  8
LINIE
 48
10.0
100
AcDbVertex
100
AcDb2dVertex
 10
89.31000064956597
 20
109.0968905312998
 30
0.0
  0
VERTEX
  5
4F5
330
4ED
100
AcDbEntity
  8
LINIE
 48
10.0
100
AcDbVertex
100
AcDb2dVertex
 10
89.34856008636407
 20
109.0561942679866
 30
0.0
  0
VERTEX
  5
4F6
330
4ED
100
AcDbEntity
  8
LINIE
 48
10.0
100
AcDbVertex
100
AcDb2dVertex
 10
89.38309501754693
 20
109.0101715846045
 30
0.0
  0
VERTEX
  5
4F7
330
4ED
100
AcDbEntity
  8
LINIE
 48
10.0
100
AcDbVertex
100
AcDb2dVertex
 10
89.41259931671075
 20
108.9597265346034
 30
0.0
  0
VERTEX
  5
4F8
330
4ED
100
AcDbEntity
  8
LINIE
 48
10.0
100
AcDbVertex
100
AcDb2dVertex
 10
89.4359905635064
 20
108.9058522803767
 30
0.0
  0
VERTEX
  5
4F9
330
4ED
100
AcDbEntity
  8
LINIE
 48
10.0
100
AcDbVertex
100
AcDb2dVertex
 10
89.45265125381402
 20
108.84973629546
 30
0.0
  0
VERTEX
  5
4FA
330
4ED
100
AcDbEntity
  8
LINIE
 48
10.0
100
AcDbVertex
100
AcDb2dVertex
 10
89.46260046111992
 20
108.7928315920813
 30
0.0
  0
VERTEX
  5
4FB
330
4ED
100
AcDbEntity
  8
LINIE
 48
10.0
100
AcDbVertex
100
AcDb2dVertex
 10
89.46590255844048
 20
108.7366108520015
 30
0.0
  0
VERTEX
  5
4FC
330
4ED
100
AcDbEntity
  8
LINIE
 48
10.0
100
AcDbVertex
100
AcDb2dVertex
 10
89.46260046111992
 20
108.680365375994
 30
0.0
  0
VERTEX
  5
4FD
330
4ED
100
AcDbEntity
  8
LINIE
 48
10.0
100
AcDbVertex
100
AcDb2dVertex
 10
89.45265125381402
 20
108.6233887000068
 30
0.0
  0
VERTEX
  5
4FE
330
4ED
100
AcDbEntity
  8
LINIE
 48
10.0
100
AcDbVertex
100
AcDb2dVertex
 10
89.4359905635064
 20
108.5671563370211
 30
0.0
  0
VERTEX
  5
4FF
330
4ED
100
AcDbEntity
  8
LINIE
 48
10.0
100
AcDbVertex
100
AcDb2dVertex
 10
89.41259931671075
 20
108.5131250245555
 30
0.0
  0
VERTEX
  5
500
330
4ED
100
AcDbEntity
  8
LINIE
 48
10.0
100
AcDbVertex
100
AcDb2dVertex
 10
89.38309501754693
 20
108.462493113993
 30
0.0
  0
VERTEX
  5
501
330
4ED
100
AcDbEntity
  8
LINIE
 48
10.0
100
AcDbVertex
100
AcDb2dVertex
 10
89.34856008636407
 20
108.4162677003129
 30
0.0
  0
VERTEX
  5
502
330
4ED
100
AcDbEntity
  8
LINIE
 48
10.0
100
AcDbVertex
100
AcDb2dVertex
 10
89.31000064956597
 20
108.3753656519635
 30
0.0
  0
VERTEX
  5
503
330
4ED
100
AcDbEntity
  8
LINIE
 48
10.0
100
AcDbVertex
100
AcDb2dVertex
 10
89.26637243377617
 20
108.3387121481879
 30
0.0
  0
VERTEX
  5
504
330
4ED
100
AcDbEntity
  8
LINIE
 48
10.0
100
AcDbVertex
100
AcDb2dVertex
 10
89.2177755747979
 20
108.3064912183268
 30
0.0
  0
VERTEX
  5
505
330
4ED
100
AcDbEntity
  8
LINIE
 48
10.0
100
AcDbVertex
100
AcDb2dVertex
 10
89.16521381484917
 20
108.2797976506932
 30
0.0
  0
VERTEX
  5
506
330
4ED
100
AcDbEntity
  8
LINIE
 48
10.0
100
AcDbVertex
100
AcDb2dVertex
 10
89.10974573242119
 20
108.2595430238231
 30
0.0
  0
VERTEX
  5
507
330
4ED
100
AcDbEntity
  8
LINIE
 48
10.0
100
AcDbVertex
100
AcDb2dVertex
 10
89.05272554504326
 20
108.2460148556215
 30
0.0
  0
SEQEND
  5
4F0
330
4ED
100
AcDbEntity
  8
LINIE
 48
10.0
  0
LINE
  5
508
330
75
100
AcDbEntity
  8
LINIE
 48
10.0
100
AcDbLine
 10
87.16590236770562
 20
110.8584660215361
 30
0.0
 11
86.96590255844048
 21
110.762363068579
 31
0.0
  0
ELLIPSE
  5
509
330
75
100
AcDbEntity
  8
LINIE
 48
10.0
100
AcDbEllipse
 10
91.84528780001228
 20
107.24708019924
 30
0.0
 11
-80.8125563654652
 21
-13.59126199306923
 31
0.0
210
0.0
220
0.0
230
1.0
 40
0.0529934231713543
 41
4.738038185407646
 42
4.761410935718723
  0
ELLIPSE
  5
50A
330
75
100
AcDbEntity
  8
LINIE
 48
10.0
100
AcDbEllipse
 10
91.84528780001231
 20
107.24708019924
 30
0.0
 11
80.81255636546542
 21
-13.59126199306922
 31
0.0
210
0.0
220
0.0
230
0.9999999999999998
 40
0.0529934231713542
 41
1.614270198202524
 42
1.637642948513604
  0
LINE
  5
50B
330
75
100
AcDbEntity
  8
LINIE
 48
10.0
100
AcDbLine
 10
86.96590255844048
 20
112.3988789243682
 30
0.0
 11
87.16590236770562
 21
112.4279028100951
 31
0.0
  0
LINE
  5
50C
330
75
100
AcDbEntity
  8
LINIE
 48
10.0
100
AcDbLine
 10
86.96590255844048
 20
111.3100165362065
 30
0.0
 11
86.96590255844048
 21
112.3988788570048
 31
0.0
  0
POLYLINE
  5
50D
330
75
100
AcDbEntity
  8
LINIE
 48
10.0
100
AcDb2dPolyline
 66
     1
 10
0.0
 20
0.0
 30
0.0
 70
   128
  0
VERTEX
  5
50E
330
50D
100
AcDbEntity
  8
LINIE
 48
10.0
100
AcDbVertex
100
AcDb2dVertex
 10
89.05272554504326
 20
112.1162465138419
 30
0.0
  0
VERTEX
  5
50F
330
50D
100
AcDbEntity
  8
LINIE
 48
10.0
100
AcDbVertex
100
AcDb2dVertex
 10
89.10974573242119
 20
112.1034988684638
 30
0.0
  0
VERTEX
  5
511
330
50D
100
AcDbEntity
  8
LINIE
 48
10.0
100
AcDbVertex
100
AcDb2dVertex
 10
89.16521381484917
 20
112.0844024343474
 30
0.0
  0
VERTEX
  5
512
330
50D
100
AcDbEntity
  8
LINIE
 48
10.0
100
AcDbVertex
100
AcDb2dVertex
 10
89.2177755747979
 20
112.059217087744
 30
0.0
  0
VERTEX
  5
513
330
50D
100
AcDbEntity
  8
LINIE
 48
10.0
100
AcDbVertex
100
AcDb2dVertex
 10
89.26637243377617
 20
112.0287895126326
 30
0.0
  0
VERTEX
  5
514
330
50D
100
AcDbEntity
  8
LINIE
 48
10.0
100
AcDbVertex
100
AcDb2dVertex
 10
89.31000064956597
 20
111.9941407365782
 30
0.0
  0
VERTEX
  5
515
330
50D
100
AcDbEntity
  8
LINIE
 48
10.0
100
AcDbVertex
100
AcDb2dVertex
 10
89.34856008636407
 20
111.9554287118895
 30
0.0
  0
VERTEX
  5
516
330
50D
100
AcDbEntity
  8
LINIE
 48
10.0
100
AcDbVertex
100
AcDb2dVertex
 10
89.38309501754693
 20
111.9116204900725
 30
0.0
  0
VERTEX
  5
517
330
50D
100
AcDbEntity
  8
LINIE
 48
10.0
100
AcDbVertex
100
AcDb2dVertex
 10
89.41259931671075
 20
111.8635666294081
 30
0.0
  0
VERTEX
  5
518
330
50D
100
AcDbEntity
  8
LINIE
 48
10.0
100
AcDbVertex
100
AcDb2dVertex
 10
89.4359905635064
 20
111.8122041149123
 30
0.0
  0
VERTEX
  5
519
330
50D
100
AcDbEntity
  8
LINIE
 48
10.0
100
AcDbVertex
100
AcDb2dVertex
 10
89.45265125381402
 20
111.7586570901854
 30
0.0
  0
VERTEX
  5
51A
330
50D
100
AcDbEntity
  8
LINIE
 48
10.0
100
AcDbVertex
100
AcDb2dVertex
 10
89.46260046111992
 20
111.7043113632186
 30
0.0
  0
VERTEX
  5
51B
330
50D
100
AcDbEntity
  8
LINIE
 48
10.0
100
AcDbVertex
100
AcDb2dVertex
 10
89.46590255844048
 20
111.6505724115355
 30
0.0
  0
VERTEX
  5
51C
330
50D
100
AcDbEntity
  8
LINIE
 48
10.0
100
AcDbVertex
100
AcDb2dVertex
 10
89.46260046111992
 20
111.5967604441626
 30
0.0
  0
VERTEX
  5
51D
330
50D
100
AcDbEntity
  8
LINIE
 48
10.0
100
AcDbVertex
100
AcDb2dVertex
 10
89.45265125381402
 20
111.5422022266371
 30
0.0
  0
VERTEX
  5
51E
330
50D
100
AcDbEntity
  8
LINIE
 48
10.0
100
AcDbVertex
100
AcDb2dVertex
 10
89.4359905635064
 20
111.4883109850867
 30
0.0
  0
VERTEX
  5
51F
330
50D
100
AcDbEntity
  8
LINIE
 48
10.0
100
AcDbVertex
100
AcDb2dVertex
 10
89.41259931671075
 20
111.4364838523848
 30
0.0
  0
VERTEX
  5
520
330
50D
100
AcDbEntity
  8
LINIE
 48
10.0
100
AcDbVertex
100
AcDb2dVertex
 10
89.38309501754693
 20
111.3878780527098
 30
0.0
  0
VERTEX
  5
521
330
50D
100
AcDbEntity
  8
LINIE
 48
10.0
100
AcDbVertex
100
AcDb2dVertex
 10
89.34856008636407
 20
111.3434702081664
 30
0.0
  0
VERTEX
  5
522
330
50D
100
AcDbEntity
  8
LINIE
 48
10.0
100
AcDbVertex
100
AcDb2dVertex
 10
89.31000064956597
 20
111.3041499180777
 30
0.0
  0
VERTEX
  5
523
330
50D
100
AcDbEntity
  8
LINIE
 48
10.0
100
AcDbVertex
100
AcDb2dVertex
 10
89.26637243377617
 20
111.2688925786002
 30
0.0
  0
VERTEX
  5
524
330
50D
100
AcDbEntity
  8
LINIE
 48
10.0
100
AcDbVertex
100
AcDb2dVertex
 10
89.2177755747979
 20
111.2378829641326
 30
0.0
  0
VERTEX
  5
525
330
50D
100
AcDbEntity
  8
LINIE
 48
10.0
100
AcDbVertex
100
AcDb2dVertex
 10
89.16521381484917
 20
111.2121814413054
 30
0.0
  0
VERTEX
  5
526
330
50D
100
AcDbEntity
  8
LINIE
 48
10.0
100
AcDbVertex
100
AcDb2dVertex
 10
89.10974573242119
 20
111.192672245024
 30
0.0
  0
VERTEX
  5
527
330
50D
100
AcDbEntity
  8
LINIE
 48
10.0
100
AcDbVertex
100
AcDb2dVertex
 10
89.05272554504326
 20
111.1796387953742
 30
0.0
  0
SEQEND
  5
510
330
50D
100
AcDbEntity
  8
LINIE
 48
10.0
  0
LINE
  5
528
330
75
100
AcDbEntity
  8
LINIE
 48
10.0
100
AcDbLine
 10
87.16590236770562
 20
113.6455672903045
 30
0.0
 11
86.96590255844048
 21
113.5137963218673
 31
0.0
  0
ELLIPSE
  5
529
330
75
100
AcDbEntity
  8
LINIE
 48
10.0
100
AcDbEllipse
 10
91.84528780001228
 20
107.24708019924
 30
0.0
 11
-80.80866796594998
 21
-12.43420794029964
 31
0.0
210
0.0
220
0.0
230
1.0
 40
0.0861394841141962
 41
4.733696822328051
 42
4.757069572639129
  0
ELLIPSE
  5
52A
330
75
100
AcDbEntity
  8
LINIE
 48
10.0
100
AcDbEllipse
 10
91.84528780001231
 20
107.24708019924
 30
0.0
 11
80.80866796595021
 21
-12.43420794029962
 31
0.0
210
0.0
220
0.0
230
1.0
 40
0.086139484114196
 41
1.61861156128212
 42
1.6419843115932
  0
LINE
  5
52B
330
75
100
AcDbEntity
  8
LINIE
 48
10.0
100
AcDbLine
 10
86.96590255844048
 20
115.0039964838011
 30
0.0
 11
87.16590236770562
 21
115.0746858043654
 31
0.0
  0
LINE
  5
52C
330
75
100
AcDbEntity
  8
LINIE
 48
10.0
100
AcDbLine
 10
86.96590255844048
 20
113.5137965332424
 30
0.0
 11
86.96590255844048
 21
115.0039963534788
 31
0.0
  0
POLYLINE
  5
52D
330
75
100
AcDbEntity
  8
LINIE
 48
10.0
100
AcDb2dPolyline
 66
     1
 10
0.0
 20
0.0
 30
0.0
 70
   128
  0
VERTEX
  5
52E
330
52D
100
AcDbEntity
  8
LINIE
 48
10.0
100
AcDbVertex
100
AcDb2dVertex
 10
89.05272554504326
 20
114.7942596597655
 30
0.0
  0
VERTEX
  5
52F
330
52D
100
AcDbEntity
  8
LINIE
 48
10.0
100
AcDbVertex
100
AcDb2dVertex
 10
89.10974573242119
 20
114.7827523870452
 30
0.0
  0
VERTEX
  5
531
330
52D
100
AcDbEntity
  8
LINIE
 48
10.0
100
AcDbVertex
100
AcDb2dVertex
 10
89.16521381484917
 20
114.7655093593581
 30
0.0
  0
VERTEX
  5
532
330
52D
100
AcDbEntity
  8
LINIE
 48
10.0
100
AcDbVertex
100
AcDb2dVertex
 10
89.2177755747979
 20
114.7427582664473
 30
0.0
  0
VERTEX
  5
533
330
52D
100
AcDbEntity
  8
LINIE
 48
10.0
100
AcDbVertex
100
AcDb2dVertex
 10
89.26637243377617
 20
114.7152572793944
 30
0.0
  0
VERTEX
  5
534
330
52D
100
AcDbEntity
  8
LINIE
 48
10.0
100
AcDbVertex
100
AcDb2dVertex
 10
89.31000064956597
 20
114.6839213294966
 30
0.0
  0
VERTEX
  5
535
330
52D
100
AcDbEntity
  8
LINIE
 48
10.0
100
AcDbVertex
100
AcDb2dVertex
 10
89.34856008636407
 20
114.6488857192977
 30
0.0
  0
VERTEX
  5
536
330
52D
100
AcDbEntity
  8
LINIE
 48
10.0
100
AcDbVertex
100
AcDb2dVertex
 10
89.38309501754693
 20
114.6092063112242
 30
0.0
  0
VERTEX
  5
537
330
52D
100
AcDbEntity
  8
LINIE
 48
10.0
100
AcDbVertex
100
AcDb2dVertex
 10
89.41259931671075
 20
114.5656442565901
 30
0.0
  0
VERTEX
  5
538
330
52D
100
AcDbEntity
  8
LINIE
 48
10.0
100
AcDbVertex
100
AcDb2dVertex
 10
89.4359905635064
 20
114.5190381927474
 30
0.0
  0
VERTEX
  5
539
330
52D
100
AcDbEntity
  8
LINIE
 48
10.0
100
AcDbVertex
100
AcDb2dVertex
 10
89.45265125381402
 20
114.4704008026107
 30
0.0
  0
VERTEX
  5
53A
330
52D
100
AcDbEntity
  8
LINIE
 48
10.0
100
AcDbVertex
100
AcDb2dVertex
 10
89.46260046111992
 20
114.4209891481383
 30
0.0
  0
VERTEX
  5
53B
330
52D
100
AcDbEntity
  8
LINIE
 48
10.0
100
AcDbVertex
100
AcDb2dVertex
 10
89.46590255844048
 20
114.3720799608214
 30
0.0
  0
VERTEX
  5
53C
330
52D
100
AcDbEntity
  8
LINIE
 48
10.0
100
AcDbVertex
100
AcDb2dVertex
 10
89.46260046111992
 20
114.3230539484008
 30
0.0
  0
VERTEX
  5
53D
330
52D
100
AcDbEntity
  8
LINIE
 48
10.0
100
AcDbVertex
100
AcDb2dVertex
 10
89.45265125381402
 20
114.2732977790816
 30
0.0
  0
VERTEX
  5
53E
330
52D
100
AcDbEntity
  8
LINIE
 48
10.0
100
AcDbVertex
100
AcDb2dVertex
 10
89.4359905635064
 20
114.2241030855162
 30
0.0
  0
VERTEX
  5
53F
330
52D
100
AcDbEntity
  8
LINIE
 48
10.0
100
AcDbVertex
100
AcDb2dVertex
 10
89.41259931671075
 20
114.1767460031493
 30
0.0
  0
VERTEX
  5
540
330
52D
100
AcDbEntity
  8
LINIE
 48
10.0
100
AcDbVertex
100
AcDb2dVertex
 10
89.38309501754693
 20
114.13229047489
 30
0.0
  0
VERTEX
  5
541
330
52D
100
AcDbEntity
  8
LINIE
 48
10.0
100
AcDbVertex
100
AcDb2dVertex
 10
89.34856008636407
 20
114.0916407031997
 30
0.0
  0
VERTEX
  5
542
330
52D
100
AcDbEntity
  8
LINIE
 48
10.0
100
AcDbVertex
100
AcDb2dVertex
 10
89.31000064956597
 20
114.0556210203154
 30
0.0
  0
VERTEX
  5
543
330
52D
100
AcDbEntity
  8
LINIE
 48
10.0
100
AcDbVertex
100
AcDb2dVertex
 10
89.26637243377617
 20
114.023300401686
 30
0.0
  0
VERTEX
  5
544
330
52D
100
AcDbEntity
  8
LINIE
 48
10.0
100
AcDbVertex
100
AcDb2dVertex
 10
89.2177755747979
 20
113.9948570651992
 30
0.0
  0
VERTEX
  5
545
330
52D
100
AcDbEntity
  8
LINIE
 48
10.0
100
AcDbVertex
100
AcDb2dVertex
 10
89.16521381484917
 20
113.9712709112151
 30
0.0
  0
VERTEX
  5
546
330
52D
100
AcDbEntity
  8
LINIE
 48
10.0
100
AcDbVertex
100
AcDb2dVertex
 10
89.10974573242119
 20
113.9533603115065
 30
0.0
  0
VERTEX
  5
547
330
52D
100
AcDbEntity
  8
LINIE
 48
10.0
100
AcDbVertex
100
AcDb2dVertex
 10
89.05272554504326
 20
113.9413911027892
 30
0.0
  0
SEQEND
  5
530
330
52D
100
AcDbEntity
  8
LINIE
 48
10.0
  0
POLYLINE
  5
548
330
75
100
AcDbEntity
  8
LINIE
 48
10.0
100
AcDb2dPolyline
 66
     1
 10
0.0
 20
0.0
 30
0.0
 70
   128
  0
VERTEX
  5
549
330
548
100
AcDbEntity
  8
LINIE
 48
10.0
100
AcDbVertex
100
AcDb2dVertex
 10
87.16590236770562
 20
116.1530238313658
 30
0.0
  0
VERTEX
  5
54A
330
548
100
AcDbEntity
  8
LINIE
 48
10.0
100
AcDbVertex
100
AcDb2dVertex
 10
87.15751241790703
 20
116.1462432069762
 30
0.0
  0
VERTEX
  5
54C
330
548
100
AcDbEntity
  8
LINIE
 48
10.0
100
AcDbVertex
100
AcDb2dVertex
 10
87.14912723648003
 20
116.1394661588652
 30
0.0
  0
VERTEX
  5
54D
330
548
100
AcDbEntity
  8
LINIE
 48
10.0
100
AcDbVertex
100
AcDb2dVertex
 10
87.14074443923882
 20
116.132692687033
 30
0.0
  0
VERTEX
  5
54E
330
548
100
AcDbEntity
  8
LINIE
 48
10.0
100
AcDbVertex
100
AcDb2dVertex
 10
87.13236879455498
 20
116.1259233875258
 30
0.0
  0
VERTEX
  5
54F
330
548
100
AcDbEntity
  8
LINIE
 48
10.0
100
AcDbVertex
100
AcDb2dVertex
 10
87.12399791824273
 20
116.1191576642974
 30
0.0
  0
VERTEX
  5
550
330
548
100
AcDbEntity
  8
LINIE
 48
10.0
100
AcDbVertex
100
AcDb2dVertex
 10
87.11563419448784
 20
116.1123961133941
 30
0.0
  0
VERTEX
  5
551
330
548
100
AcDbEntity
  8
LINIE
 48
10.0
100
AcDbVertex
100
AcDb2dVertex
 10
87.10727285491875
 20
116.1056387348159
 30
0.0
  0
VERTEX
  5
552
330
548
100
AcDbEntity
  8
LINIE
 48
10.0
100
AcDbVertex
100
AcDb2dVertex
 10
87.09891628372124
 20
116.0988849325164
 30
0.0
  0
VERTEX
  5
553
330
548
100
AcDbEntity
  8
LINIE
 48
10.0
100
AcDbVertex
100
AcDb2dVertex
 10
87.09056686508111
 20
116.0921347064955
 30
0.0
  0
VERTEX
  5
554
330
548
100
AcDbEntity
  8
LINIE
 48
10.0
100
AcDbVertex
100
AcDb2dVertex
 10
87.08221983062676
 20
116.0853886527999
 30
0.0
  0
VERTEX
  5
555
330
548
100
AcDbEntity
  8
LINIE
 48
10.0
100
AcDbVertex
100
AcDb2dVertex
 10
87.07387994872979
 20
116.0786461753829
 30
0.0
  0
VERTEX
  5
556
330
548
100
AcDbEntity
  8
LINIE
 48
10.0
100
AcDbVertex
100
AcDb2dVertex
 10
87.0655448352044
 20
116.071907870291
 30
0.0
  0
VERTEX
  5
557
330
548
100
AcDbEntity
  8
LINIE
 48
10.0
100
AcDbVertex
100
AcDb2dVertex
 10
87.05721449005059
 20
116.0651731414779
 30
0.0
  0
VERTEX
  5
558
330
548
100
AcDbEntity
  8
LINIE
 48
10.0
100
AcDbVertex
100
AcDb2dVertex
 10
87.04888652908257
 20
116.0584419889434
 30
0.0
  0
VERTEX
  5
559
330
548
100
AcDbEntity
  8
LINIE
 48
10.0
100
AcDbVertex
100
AcDb2dVertex
 10
87.04056572067193
 20
116.051715008734
 30
0.0
  0
VERTEX
  5
55A
330
548
100
AcDbEntity
  8
LINIE
 48
10.0
100
AcDbVertex
100
AcDb2dVertex
 10
87.03225206481866
 20
116.0449922008498
 30
0.0
  0
VERTEX
  5
55B
330
548
100
AcDbEntity
  8
LINIE
 48
10.0
100
AcDbVertex
100
AcDb2dVertex
 10
87.02394079315117
 20
116.0382729692443
 30
0.0
  0
VERTEX
  5
55C
330
548
100
AcDbEntity
  8
LINIE
 48
10.0
100
AcDbVertex
100
AcDb2dVertex
 10
87.01563428985528
 20
116.0315573139174
 30
0.0
  0
VERTEX
  5
55D
330
548
100
AcDbEntity
  8
LINIE
 48
10.0
100
AcDbVertex
100
AcDb2dVertex
 10
87.00733255493096
 20
116.0248458309157
 30
0.0
  0
VERTEX
  5
55E
330
548
100
AcDbEntity
  8
LINIE
 48
10.0
100
AcDbVertex
100
AcDb2dVertex
 10
86.99903797256402
 20
116.0181379241927
 30
0.0
  0
VERTEX
  5
55F
330
548
100
AcDbEntity
  8
LINIE
 48
10.0
100
AcDbVertex
100
AcDb2dVertex
 10
86.99074577438286
 20
116.0114335937484
 30
0.0
  0
VERTEX
  5
560
330
548
100
AcDbEntity
  8
LINIE
 48
10.0
100
AcDbVertex
100
AcDb2dVertex
 10
86.98246072875909
 20
116.0047334356292
 30
0.0
  0
VERTEX
  5
561
330
548
100
AcDbEntity
  8
LINIE
 48
10.0
100
AcDbVertex
100
AcDb2dVertex
 10
86.9741780673211
 20
115.9980368537886
 30
0.0
  0
VERTEX
  5
562
330
548
100
AcDbEntity
  8
LINIE
 48
10.0
100
AcDbVertex
100
AcDb2dVertex
 10
86.96590255844048
 20
115.9913444442733
 30
0.0
  0
SEQEND
  5
54B
330
548
100
AcDbEntity
  8
LINIE
 48
10.0
  0
ELLIPSE
  5
563
330
75
100
AcDbEntity
  8
LINIE
 48
10.0
100
AcDbEllipse
 10
91.84528780001228
 20
107.24708019924
 30
0.0
 11
-80.8061761611384
 21
-10.7354443312559
 31
0.0
210
0.0
220
0.0
230
1.0
 40
0.1159669395538346
 41
4.731545036081572
 42
4.754917786392653
  0
ELLIPSE
  5
564
330
75
100
AcDbEntity
  8
LINIE
 48
10.0
100
AcDbEllipse
 10
91.84528780001235
 20
107.24708019924
 30
0.0
 11
80.80617616113867
 21
-10.73544433125589
 31
0.0
210
0.0
220
0.0
230
1.0
 40
0.1159669395538342
 41
1.620763347528584
 42
1.644136097839663
  0
POLYLINE
  5
565
330
75
100
AcDbEntity
  8
LINIE
 48
10.0
100
AcDb2dPolyline
 66
     1
 10
0.0
 20
0.0
 30
0.0
 70
   128
  0
VERTEX
  5
566
330
565
100
AcDbEntity
  8
LINIE
 48
10.0
100
AcDbVertex
100
AcDb2dVertex
 10
86.96590255844048
 20
117.2700995130522
 30
0.0
  0
VERTEX
  5
567
330
565
100
AcDbEntity
  8
LINIE
 48
10.0
100
AcDbVertex
100
AcDb2dVertex
 10
86.9741780673211
 20
117.2746235055907
 30
0.0
  0
VERTEX
  5
569
330
565
100
AcDbEntity
  8
LINIE
 48
10.0
100
AcDbVertex
100
AcDb2dVertex
 10
86.98246072875909
 20
117.279148690222
 30
0.0
  0
VERTEX
  5
56A
330
565
100
AcDbEntity
  8
LINIE
 48
10.0
100
AcDbVertex
100
AcDb2dVertex
 10
86.99074577438286
 20
117.2836774511321
 30
0.0
  0
VERTEX
  5
56B
330
565
100
AcDbEntity
  8
LINIE
 48
10.0
100
AcDbVertex
100
AcDb2dVertex
 10
86.99903797256402
 20
117.2882085962279
 30
0.0
  0
VERTEX
  5
56C
330
565
100
AcDbEntity
  8
LINIE
 48
10.0
100
AcDbVertex
100
AcDb2dVertex
 10
87.00733255493096
 20
117.2927433176024
 30
0.0
  0
VERTEX
  5
56D
330
565
100
AcDbEntity
  8
LINIE
 48
10.0
100
AcDbVertex
100
AcDb2dVertex
 10
87.01563428985528
 20
117.2972792310698
 30
0.0
  0
VERTEX
  5
56E
330
565
100
AcDbEntity
  8
LINIE
 48
10.0
100
AcDbVertex
100
AcDb2dVertex
 10
87.02394079315117
 20
117.301817528723
 30
0.0
  0
VERTEX
  5
56F
330
565
100
AcDbEntity
  8
LINIE
 48
10.0
100
AcDbVertex
100
AcDb2dVertex
 10
87.03225206481866
 20
117.3063594026549
 30
0.0
  0
VERTEX
  5
570
330
565
100
AcDbEntity
  8
LINIE
 48
10.0
100
AcDbVertex
100
AcDb2dVertex
 10
87.04056572067193
 20
117.3109024686797
 30
0.0
  0
VERTEX
  5
571
330
565
100
AcDbEntity
  8
LINIE
 48
10.0
100
AcDbVertex
100
AcDb2dVertex
 10
87.04888652908257
 20
117.3154491109832
 30
0.0
  0
VERTEX
  5
572
330
565
100
AcDbEntity
  8
LINIE
 48
10.0
100
AcDbVertex
100
AcDb2dVertex
 10
87.05721449005059
 20
117.3199981374724
 30
0.0
  0
VERTEX
  5
573
330
565
100
AcDbEntity
  8
LINIE
 48
10.0
100
AcDbVertex
100
AcDb2dVertex
 10
87.0655448352044
 20
117.3245495481475
 30
0.0
  0
VERTEX
  5
574
330
565
100
AcDbEntity
  8
LINIE
 48
10.0
100
AcDbVertex
100
AcDb2dVertex
 10
87.07387994872979
 20
117.3291033430083
 30
0.0
  0
VERTEX
  5
575
330
565
100
AcDbEntity
  8
LINIE
 48
10.0
100
AcDbVertex
100
AcDb2dVertex
 10
87.08221983062676
 20
117.3336595220549
 30
0.0
  0
VERTEX
  5
576
330
565
100
AcDbEntity
  8
LINIE
 48
10.0
100
AcDbVertex
100
AcDb2dVertex
 10
87.09056686508111
 20
117.3382180852874
 30
0.0
  0
VERTEX
  5
577
330
565
100
AcDbEntity
  8
LINIE
 48
10.0
100
AcDbVertex
100
AcDb2dVertex
 10
87.09891628372124
 20
117.3427802247985
 30
0.0
  0
VERTEX
  5
578
330
565
100
AcDbEntity
  8
LINIE
 48
10.0
100
AcDbVertex
100
AcDb2dVertex
 10
87.10727285491875
 20
117.3473447484954
 30
0.0
  0
VERTEX
  5
579
330
565
100
AcDbEntity
  8
LINIE
 48
10.0
100
AcDbVertex
100
AcDb2dVertex
 10
87.11563419448784
 20
117.3519104642852
 30
0.0
  0
VERTEX
  5
57A
330
565
100
AcDbEntity
  8
LINIE
 48
10.0
100
AcDbVertex
100
AcDb2dVertex
 10
87.12399791824273
 20
117.3564797563536
 30
0.0
  0
VERTEX
  5
57B
330
565
100
AcDbEntity
  8
LINIE
 48
10.0
100
AcDbVertex
100
AcDb2dVertex
 10
87.13236879455498
 20
117.3610514326079
 30
0.0
  0
VERTEX
  5
57C
330
565
100
AcDbEntity
  8
LINIE
 48
10.0
100
AcDbVertex
100
AcDb2dVertex
 10
87.14074443923882
 20
117.365625493048
 30
0.0
  0
VERTEX
  5
57D
330
565
100
AcDbEntity
  8
LINIE
 48
10.0
100
AcDbVertex
100
AcDb2dVertex
 10
87.14912723648003
 20
117.3702031297667
 30
0.0
  0
VERTEX
  5
57E
330
565
100
AcDbEntity
  8
LINIE
 48
10.0
100
AcDbVertex
100
AcDb2dVertex
 10
87.15751241790703
 20
117.3747819585784
 30
0.0
  0
VERTEX
  5
57F
330
565
100
AcDbEntity
  8
LINIE
 48
10.0
100
AcDbVertex
100
AcDb2dVertex
 10
87.16590236770562
 20
117.3793643636687
 30
0.0
  0
SEQEND
  5
568
330
565
100
AcDbEntity
  8
LINIE
 48
10.0
  0
LINE
  5
580
330
75
100
AcDbEntity
  8
LINIE
 48
10.0
100
AcDbLine
 10
86.96590255844048
 20
115.9913444267021
 30
0.0
 11
86.96590255844048
 21
117.2700993921992
 31
0.0
  0
POLYLINE
  5
581
330
75
100
AcDbEntity
  8
LINIE
 48
10.0
100
AcDb2dPolyline
 66
     1
 10
0.0
 20
0.0
 30
0.0
 70
   128
  0
VERTEX
  5
582
330
581
100
AcDbEntity
  8
LINIE
 48
10.0
100
AcDbVertex
100
AcDb2dVertex
 10
89.05272554504326
 20
117.142424575804
 30
0.0
  0
VERTEX
  5
583
330
581
100
AcDbEntity
  8
LINIE
 48
10.0
100
AcDbVertex
100
AcDb2dVertex
 10
89.10974573242119
 20
117.1326613349898
 30
0.0
  0
VERTEX
  5
585
330
581
100
AcDbEntity
  8
LINIE
 48
10.0
100
AcDbVertex
100
AcDb2dVertex
 10
89.16521381484917
 20
117.1180248184188
 30
0.0
  0
VERTEX
  5
586
330
581
100
AcDbEntity
  8
LINIE
 48
10.0
100
AcDbVertex
100
AcDb2dVertex
 10
89.2177755747979
 20
117.0987027807219
 30
0.0
  0
VERTEX
  5
587
330
581
100
AcDbEntity
  8
LINIE
 48
10.0
100
AcDbVertex
100
AcDb2dVertex
 10
89.26637243377617
 20
117.0753300113662
 30
0.0
  0
VERTEX
  5
588
330
581
100
AcDbEntity
  8
LINIE
 48
10.0
100
AcDbVertex
100
AcDb2dVertex
 10
89.31000064956597
 20
117.048676602362
 30
0.0
  0
VERTEX
  5
589
330
581
100
AcDbEntity
  8
LINIE
 48
10.0
100
AcDbVertex
100
AcDb2dVertex
 10
89.34856008636407
 20
117.018848649977
 30
0.0
  0
VERTEX
  5
58A
330
581
100
AcDbEntity
  8
LINIE
 48
10.0
100
AcDbVertex
100
AcDb2dVertex
 10
89.38309501754693
 20
116.9850319547637
 30
0.0
  0
VERTEX
  5
58B
330
581
100
AcDbEntity
  8
LINIE
 48
10.0
100
AcDbVertex
100
AcDb2dVertex
 10
89.41259931671075
 20
116.947865478514
 30
0.0
  0
VERTEX
  5
58C
330
581
100
AcDbEntity
  8
LINIE
 48
10.0
100
AcDbVertex
100
AcDb2dVertex
 10
89.4359905635064
 20
116.9080531520827
 30
0.0
  0
VERTEX
  5
58D
330
581
100
AcDbEntity
  8
LINIE
 48
10.0
100
AcDbVertex
100
AcDb2dVertex
 10
89.45265125381402
 20
116.8664503021224
 30
0.0
  0
VERTEX
  5
58E
330
581
100
AcDbEntity
  8
LINIE
 48
10.0
100
AcDbVertex
100
AcDb2dVertex
 10
89.46260046111992
 20
116.8241321964248
 30
0.0
  0
VERTEX
  5
58F
330
581
100
AcDbEntity
  8
LINIE
 48
10.0
100
AcDbVertex
100
AcDb2dVertex
 10
89.46590255844048
 20
116.7821913881285
 30
0.0
  0
VERTEX
  5
590
330
581
100
AcDbEntity
  8
LINIE
 48
10.0
100
AcDbVertex
100
AcDb2dVertex
 10
89.46260046111992
 20
116.7400932235701
 30
0.0
  0
VERTEX
  5
591
330
581
100
AcDbEntity
  8
LINIE
 48
10.0
100
AcDbVertex
100
AcDb2dVertex
 10
89.45265125381402
 20
116.6973143739684
 30
0.0
  0
VERTEX
  5
592
330
581
100
AcDbEntity
  8
LINIE
 48
10.0
100
AcDbVertex
100
AcDb2dVertex
 10
89.4359905635064
 20
116.6549664659484
 30
0.0
  0
VERTEX
  5
593
330
581
100
AcDbEntity
  8
LINIE
 48
10.0
100
AcDbVertex
100
AcDb2dVertex
 10
89.41259931671075
 20
116.6141480131133
 30
0.0
  0
VERTEX
  5
594
330
581
100
AcDbEntity
  8
LINIE
 48
10.0
100
AcDbVertex
100
AcDb2dVertex
 10
89.38309501754693
 20
116.5757858676894
 30
0.0
  0
VERTEX
  5
595
330
581
100
AcDbEntity
  8
LINIE
 48
10.0
100
AcDbVertex
100
AcDb2dVertex
 10
89.34856008636407
 20
116.5406709833129
 30
0.0
  0
VERTEX
  5
596
330
581
100
AcDbEntity
  8
LINIE
 48
10.0
100
AcDbVertex
100
AcDb2dVertex
 10
89.31000064956597
 20
116.5095257682784
 30
0.0
  0
VERTEX
  5
597
330
581
100
AcDbEntity
  8
LINIE
 48
10.0
100
AcDbVertex
100
AcDb2dVertex
 10
89.26637243377617
 20
116.4815550966246
 30
0.0
  0
VERTEX
  5
598
330
581
100
AcDbEntity
  8
LINIE
 48
10.0
100
AcDbVertex
100
AcDb2dVertex
 10
89.2177755747979
 20
116.4569210929854
 30
0.0
  0
VERTEX
  5
599
330
581
100
AcDbEntity
  8
LINIE
 48
10.0
100
AcDbVertex
100
AcDb2dVertex
 10
89.16521381484917
 20
116.436481468199
 30
0.0
  0
VERTEX
  5
59A
330
581
100
AcDbEntity
  8
LINIE
 48
10.0
100
AcDbVertex
100
AcDb2dVertex
 10
89.10974573242119
 20
116.4209514780028
 30
0.0
  0
VERTEX
  5
59B
330
581
100
AcDbEntity
  8
LINIE
 48
10.0
100
AcDbVertex
100
AcDb2dVertex
 10
89.05272554504326
 20
116.4105695409758
 30
0.0
  0
SEQEND
  5
584
330
581
100
AcDbEntity
  8
LINIE
 48
10.0
  0
POLYLINE
  5
59C
330
75
100
AcDbEntity
  8
LINIE
 48
10.0
100
AcDb2dPolyline
 66
     1
 10
0.0
 20
0.0
 30
0.0
 70
   128
  0
VERTEX
  5
59D
330
59C
100
AcDbEntity
  8
LINIE
 48
10.0
100
AcDbVertex
100
AcDb2dVertex
 10
87.16590236770562
 20
118.2712477369292
 30
0.0
  0
VERTEX
  5
59E
330
59C
100
AcDbEntity
  8
LINIE
 48
10.0
100
AcDbVertex
100
AcDb2dVertex
 10
87.15751241790703
 20
118.2635086698516
 30
0.0
  0
VERTEX
  5
5A0
330
59C
100
AcDbEntity
  8
LINIE
 48
10.0
100
AcDbVertex
100
AcDb2dVertex
 10
87.14912723648003
 20
118.2557743711455
 30
0.0
  0
VERTEX
  5
5A1
330
59C
100
AcDbEntity
  8
LINIE
 48
10.0
100
AcDbVertex
100
AcDb2dVertex
 10
87.14074443923882
 20
118.248044840811
 30
0.0
  0
VERTEX
  5
5A2
330
59C
100
AcDbEntity
  8
LINIE
 48
10.0
100
AcDbVertex
100
AcDb2dVertex
 10
87.13236879455498
 20
118.2403188867553
 30
0.0
  0
VERTEX
  5
5A3
330
59C
100
AcDbEntity
  8
LINIE
 48
10.0
100
AcDbVertex
100
AcDb2dVertex
 10
87.12399791824273
 20
118.2325977010711
 30
0.0
  0
VERTEX
  5
5A4
330
59C
100
AcDbEntity
  8
LINIE
 48
10.0
100
AcDbVertex
100
AcDb2dVertex
 10
87.11563419448784
 20
118.2248812837584
 30
0.0
  0
VERTEX
  5
5A5
330
59C
100
AcDbEntity
  8
LINIE
 48
10.0
100
AcDbVertex
100
AcDb2dVertex
 10
87.10727285491875
 20
118.2171684427245
 30
0.0
  0
VERTEX
  5
5A6
330
59C
100
AcDbEntity
  8
LINIE
 48
10.0
100
AcDbVertex
100
AcDb2dVertex
 10
87.09891628372124
 20
118.2094603700621
 30
0.0
  0
VERTEX
  5
5A7
330
59C
100
AcDbEntity
  8
LINIE
 48
10.0
100
AcDbVertex
100
AcDb2dVertex
 10
87.09056686508111
 20
118.2017570657714
 30
0.0
  0
VERTEX
  5
5A8
330
59C
100
AcDbEntity
  8
LINIE
 48
10.0
100
AcDbVertex
100
AcDb2dVertex
 10
87.08221983062676
 20
118.1940573377593
 30
0.0
  0
VERTEX
  5
5A9
330
59C
100
AcDbEntity
  8
LINIE
 48
10.0
100
AcDbVertex
100
AcDb2dVertex
 10
87.07387994872979
 20
118.1863623781188
 30
0.0
  0
VERTEX
  5
5AA
330
59C
100
AcDbEntity
  8
LINIE
 48
10.0
100
AcDbVertex
100
AcDb2dVertex
 10
87.0655448352044
 20
118.1786721868498
 30
0.0
  0
VERTEX
  5
5AB
330
59C
100
AcDbEntity
  8
LINIE
 48
10.0
100
AcDbVertex
100
AcDb2dVertex
 10
87.05721449005059
 20
118.1709867639525
 30
0.0
  0
VERTEX
  5
5AC
330
59C
100
AcDbEntity
  8
LINIE
 48
10.0
100
AcDbVertex
100
AcDb2dVertex
 10
87.04888652908257
 20
118.1633049173339
 30
0.0
  0
VERTEX
  5
5AD
330
59C
100
AcDbEntity
  8
LINIE
 48
10.0
100
AcDbVertex
100
AcDb2dVertex
 10
87.04056572067193
 20
118.1556266469939
 30
0.0
  0
VERTEX
  5
5AE
330
59C
100
AcDbEntity
  8
LINIE
 48
10.0
100
AcDbVertex
100
AcDb2dVertex
 10
87.03225206481866
 20
118.1479543371184
 30
0.0
  0
VERTEX
  5
5AF
330
59C
100
AcDbEntity
  8
LINIE
 48
10.0
100
AcDbVertex
100
AcDb2dVertex
 10
87.02394079315117
 20
118.1402856035216
 30
0.0
  0
VERTEX
  5
5B0
330
59C
100
AcDbEntity
  8
LINIE
 48
10.0
100
AcDbVertex
100
AcDb2dVertex
 10
87.01563428985528
 20
118.1326204462035
 30
0.0
  0
VERTEX
  5
5B1
330
59C
100
AcDbEntity
  8
LINIE
 48
10.0
100
AcDbVertex
100
AcDb2dVertex
 10
87.00733255493096
 20
118.1249612493499
 30
0.0
  0
VERTEX
  5
5B2
330
59C
100
AcDbEntity
  8
LINIE
 48
10.0
100
AcDbVertex
100
AcDb2dVertex
 10
86.99903797256402
 20
118.1173056287749
 30
0.0
  0
VERTEX
  5
5B3
330
59C
100
AcDbEntity
  8
LINIE
 48
10.0
100
AcDbVertex
100
AcDb2dVertex
 10
86.99074577438286
 20
118.1096535844786
 30
0.0
  0
VERTEX
  5
5B4
330
59C
100
AcDbEntity
  8
LINIE
 48
10.0
100
AcDbVertex
100
AcDb2dVertex
 10
86.98246072875909
 20
118.1020075006468
 30
0.0
  0
VERTEX
  5
5B5
330
59C
100
AcDbEntity
  8
LINIE
 48
10.0
100
AcDbVertex
100
AcDb2dVertex
 10
86.9741780673211
 20
118.0943638010009
 30
0.0
  0
VERTEX
  5
5B6
330
59C
100
AcDbEntity
  8
LINIE
 48
10.0
100
AcDbVertex
100
AcDb2dVertex
 10
86.96590255844048
 20
118.0867260618193
 30
0.0
  0
SEQEND
  5
59F
330
59C
100
AcDbEntity
  8
LINIE
 48
10.0
  0
ELLIPSE
  5
5B7
330
75
100
AcDbEntity
  8
LINIE
 48
10.0
100
AcDbEllipse
 10
91.84528780001228
 20
107.24708019924
 30
0.0
 11
-80.80676653500303
 21
-8.547048941318921
 31
0.0
210
0.0
220
0.0
230
1.0
 40
0.1411046770739304
 41
4.732026780199888
 42
4.755399530510968
  0
ELLIPSE
  5
5B8
330
75
100
AcDbEntity
  8
LINIE
 48
10.0
100
AcDbEllipse
 10
91.84528780001231
 20
107.24708019924
 30
0.0
 11
80.80676653500331
 21
-8.547048941318907
 31
0.0
210
0.0
220
0.0
230
0.9999999999999998
 40
0.1411046770739299
 41
1.620281603410274
 42
1.643654353721353
  0
POLYLINE
  5
5B9
330
75
100
AcDbEntity
  8
LINIE
 48
10.0
100
AcDb2dPolyline
 66
     1
 10
0.0
 20
0.0
 30
0.0
 70
   128
  0
VERTEX
  5
5BA
330
5B9
100
AcDbEntity
  8
LINIE
 48
10.0
100
AcDbVertex
100
AcDb2dVertex
 10
86.96590255844048
 20
119.0981489343627
 30
0.0
  0
VERTEX
  5
5BB
330
5B9
100
AcDbEntity
  8
LINIE
 48
10.0
100
AcDbVertex
100
AcDb2dVertex
 10
86.9741780673211
 20
119.1040712518676
 30
0.0
  0
VERTEX
  5
5BD
330
5B9
100
AcDbEntity
  8
LINIE
 48
10.0
100
AcDbVertex
100
AcDb2dVertex
 10
86.98246072875909
 20
119.1099971456511
 30
0.0
  0
VERTEX
  5
5BE
330
5B9
100
AcDbEntity
  8
LINIE
 48
10.0
100
AcDbVertex
100
AcDb2dVertex
 10
86.99074577438286
 20
119.1159266157134
 30
0.0
  0
VERTEX
  5
5BF
330
5B9
100
AcDbEntity
  8
LINIE
 48
10.0
100
AcDbVertex
100
AcDb2dVertex
 10
86.99903797256402
 20
119.1218596620543
 30
0.0
  0
VERTEX
  5
5C0
330
5B9
100
AcDbEntity
  8
LINIE
 48
10.0
100
AcDbVertex
100
AcDb2dVertex
 10
87.00733255493096
 20
119.1277950925811
 30
0.0
  0
VERTEX
  5
5C1
330
5B9
100
AcDbEntity
  8
LINIE
 48
10.0
100
AcDbVertex
100
AcDb2dVertex
 10
87.01563428985528
 20
119.1337352914794
 30
0.0
  0
VERTEX
  5
5C2
330
5B9
100
AcDbEntity
  8
LINIE
 48
10.0
100
AcDbVertex
100
AcDb2dVertex
 10
87.02394079315117
 20
119.1396778745635
 30
0.0
  0
VERTEX
  5
5C3
330
5B9
100
AcDbEntity
  8
LINIE
 48
10.0
100
AcDbVertex
100
AcDb2dVertex
 10
87.03225206481866
 20
119.1456228418334
 30
0.0
  0
VERTEX
  5
5C4
330
5B9
100
AcDbEntity
  8
LINIE
 48
10.0
100
AcDbVertex
100
AcDb2dVertex
 10
87.04056572067193
 20
119.1515725774749
 30
0.0
  0
VERTEX
  5
5C5
330
5B9
100
AcDbEntity
  8
LINIE
 48
10.0
100
AcDbVertex
100
AcDb2dVertex
 10
87.04888652908257
 20
119.157525889395
 30
0.0
  0
VERTEX
  5
5C6
330
5B9
100
AcDbEntity
  8
LINIE
 48
10.0
100
AcDbVertex
100
AcDb2dVertex
 10
87.05721449005059
 20
119.163481585501
 30
0.0
  0
VERTEX
  5
5C7
330
5B9
100
AcDbEntity
  8
LINIE
 48
10.0
100
AcDbVertex
100
AcDb2dVertex
 10
87.0655448352044
 20
119.1694408578856
 30
0.0
  0
VERTEX
  5
5C8
330
5B9
100
AcDbEntity
  8
LINIE
 48
10.0
100
AcDbVertex
100
AcDb2dVertex
 10
87.07387994872979
 20
119.1754037065489
 30
0.0
  0
VERTEX
  5
5C9
330
5B9
100
AcDbEntity
  8
LINIE
 48
10.0
100
AcDbVertex
100
AcDb2dVertex
 10
87.08221983062676
 20
119.1813689393981
 30
0.0
  0
VERTEX
  5
5CA
330
5B9
100
AcDbEntity
  8
LINIE
 48
10.0
100
AcDbVertex
100
AcDb2dVertex
 10
87.09056686508111
 20
119.1873389406188
 30
0.0
  0
VERTEX
  5
5CB
330
5B9
100
AcDbEntity
  8
LINIE
 48
10.0
100
AcDbVertex
100
AcDb2dVertex
 10
87.09891628372124
 20
119.1933113260253
 30
0.0
  0
VERTEX
  5
5CC
330
5B9
100
AcDbEntity
  8
LINIE
 48
10.0
100
AcDbVertex
100
AcDb2dVertex
 10
87.10727285491875
 20
119.1992872877104
 30
0.0
  0
VERTEX
  5
5CD
330
5B9
100
AcDbEntity
  8
LINIE
 48
10.0
100
AcDbVertex
100
AcDb2dVertex
 10
87.11563419448784
 20
119.2052668256743
 30
0.0
  0
VERTEX
  5
5CE
330
5B9
100
AcDbEntity
  8
LINIE
 48
10.0
100
AcDbVertex
100
AcDb2dVertex
 10
87.12399791824273
 20
119.2112499399169
 30
0.0
  0
VERTEX
  5
5CF
330
5B9
100
AcDbEntity
  8
LINIE
 48
10.0
100
AcDbVertex
100
AcDb2dVertex
 10
87.13236879455498
 20
119.2172354383452
 30
0.0
  0
VERTEX
  5
5D0
330
5B9
100
AcDbEntity
  8
LINIE
 48
10.0
100
AcDbVertex
100
AcDb2dVertex
 10
87.14074443923882
 20
119.2232245130522
 30
0.0
  0
VERTEX
  5
5D1
330
5B9
100
AcDbEntity
  8
LINIE
 48
10.0
100
AcDbVertex
100
AcDb2dVertex
 10
87.14912723648003
 20
119.229217164038
 30
0.0
  0
VERTEX
  5
5D2
330
5B9
100
AcDbEntity
  8
LINIE
 48
10.0
100
AcDbVertex
100
AcDb2dVertex
 10
87.15751241790703
 20
119.2352133913024
 30
0.0
  0
VERTEX
  5
5D3
330
5B9
100
AcDbEntity
  8
LINIE
 48
10.0
100
AcDbVertex
100
AcDb2dVertex
 10
87.16590236770562
 20
119.2412131948455
 30
0.0
  0
SEQEND
  5
5BC
330
5B9
100
AcDbEntity
  8
LINIE
 48
10.0
  0
LINE
  5
5D4
330
75
100
AcDbEntity
  8
LINIE
 48
10.0
100
AcDbLine
 10
86.96590255844048
 20
118.0867260137866
 30
0.0
 11
86.96590255844048
 21
119.0981483964051
 31
0.0
  0
POLYLINE
  5
5D5
330
75
100
AcDbEntity
  8
LINIE
 48
10.0
100
AcDb2dPolyline
 66
     1
 10
0.0
 20
0.0
 30
0.0
 70
   128
  0
VERTEX
  5
5D6
330
5D5
100
AcDbEntity
  8
LINIE
 48
10.0
100
AcDbVertex
100
AcDb2dVertex
 10
89.05272554504326
 20
119.0581148786528
 30
0.0
  0
VERTEX
  5
5D7
330
5D5
100
AcDbEntity
  8
LINIE
 48
10.0
100
AcDbVertex
100
AcDb2dVertex
 10
89.10974573242119
 20
119.0505224390014
 30
0.0
  0
VERTEX
  5
5D9
330
5D5
100
AcDbEntity
  8
LINIE
 48
10.0
100
AcDbVertex
100
AcDb2dVertex
 10
89.16521381484917
 20
119.0391331834777
 30
0.0
  0
VERTEX
  5
5DA
330
5D5
100
AcDbEntity
  8
LINIE
 48
10.0
100
AcDbVertex
100
AcDb2dVertex
 10
89.2177755747979
 20
119.0240842027648
 30
0.0
  0
VERTEX
  5
5DB
330
5D5
100
AcDbEntity
  8
LINIE
 48
10.0
100
AcDbVertex
100
AcDb2dVertex
 10
89.26637243377617
 20
119.0058606786712
 30
0.0
  0
VERTEX
  5
5DC
330
5D5
100
AcDbEntity
  8
LINIE
 48
10.0
100
AcDbVertex
100
AcDb2dVertex
 10
89.31000064956597
 20
118.9850550813658
 30
0.0
  0
VERTEX
  5
5DD
330
5D5
100
AcDbEntity
  8
LINIE
 48
10.0
100
AcDbVertex
100
AcDb2dVertex
 10
89.34856008636407
 20
118.9617377443297
 30
0.0
  0
VERTEX
  5
5DE
330
5D5
100
AcDbEntity
  8
LINIE
 48
10.0
100
AcDbVertex
100
AcDb2dVertex
 10
89.38309501754693
 20
118.9352625532134
 30
0.0
  0
VERTEX
  5
5DF
330
5D5
100
AcDbEntity
  8
LINIE
 48
10.0
100
AcDbVertex
100
AcDb2dVertex
 10
89.41259931671075
 20
118.9061158819182
 30
0.0
  0
VERTEX
  5
5E0
330
5D5
100
AcDbEntity
  8
LINIE
 48
10.0
100
AcDbVertex
100
AcDb2dVertex
 10
89.4359905635064
 20
118.874836556433
 30
0.0
  0
VERTEX
  5
5E1
330
5D5
100
AcDbEntity
  8
LINIE
 48
10.0
100
AcDbVertex
100
AcDb2dVertex
 10
89.45265125381402
 20
118.8420873804076
 30
0.0
  0
VERTEX
  5
5E2
330
5D5
100
AcDbEntity
  8
LINIE
 48
10.0
100
AcDbVertex
100
AcDb2dVertex
 10
89.46260046111992
 20
118.8087123556121
 30
0.0
  0
VERTEX
  5
5E3
330
5D5
100
AcDbEntity
  8
LINIE
 48
10.0
100
AcDbVertex
100
AcDb2dVertex
 10
89.46590255844048
 20
118.775572173117
 30
0.0
  0
VERTEX
  5
5E4
330
5D5
100
AcDbEntity
  8
LINIE
 48
10.0
100
AcDbVertex
100
AcDb2dVertex
 10
89.46260046111992
 20
118.7422424478514
 30
0.0
  0
VERTEX
  5
5E5
330
5D5
100
AcDbEntity
  8
LINIE
 48
10.0
100
AcDbVertex
100
AcDb2dVertex
 10
89.45265125381402
 20
118.7083107156737
 30
0.0
  0
VERTEX
  5
5E6
330
5D5
100
AcDbEntity
  8
LINIE
 48
10.0
100
AcDbVertex
100
AcDb2dVertex
 10
89.4359905635064
 20
118.6746591253264
 30
0.0
  0
VERTEX
  5
5E7
330
5D5
100
AcDbEntity
  8
LINIE
 48
10.0
100
AcDbVertex
100
AcDb2dVertex
 10
89.41259931671075
 20
118.6421638650878
 30
0.0
  0
VERTEX
  5
5E8
330
5D5
100
AcDbEntity
  8
LINIE
 48
10.0
100
AcDbVertex
100
AcDb2dVertex
 10
89.38309501754693
 20
118.6115723772033
 30
0.0
  0
VERTEX
  5
5E9
330
5D5
100
AcDbEntity
  8
LINIE
 48
10.0
100
AcDbVertex
100
AcDb2dVertex
 10
89.34856008636407
 20
118.5835271997435
 30
0.0
  0
VERTEX
  5
5EA
330
5D5
100
AcDbEntity
  8
LINIE
 48
10.0
100
AcDbVertex
100
AcDb2dVertex
 10
89.31000064956597
 20
118.558617226599
 30
0.0
  0
VERTEX
  5
5EB
330
5D5
100
AcDbEntity
  8
LINIE
 48
10.0
100
AcDbVertex
100
AcDb2dVertex
 10
89.26637243377617
 20
118.5362189931853
 30
0.0
  0
VERTEX
  5
5EC
330
5D5
100
AcDbEntity
  8
LINIE
 48
10.0
100
AcDbVertex
100
AcDb2dVertex
 10
89.2177755747979
 20
118.5164707822783
 30
0.0
  0
VERTEX
  5
5ED
330
5D5
100
AcDbEntity
  8
LINIE
 48
10.0
100
AcDbVertex
100
AcDb2dVertex
 10
89.16521381484917
 20
118.5000711603148
 30
0.0
  0
VERTEX
  5
5EE
330
5D5
100
AcDbEntity
  8
LINIE
 48
10.0
100
AcDbVertex
100
AcDb2dVertex
 10
89.10974573242119
 20
118.4876006765349
 30
0.0
  0
VERTEX
  5
5EF
330
5D5
100
AcDbEntity
  8
LINIE
 48
10.0
100
AcDbVertex
100
AcDb2dVertex
 10
89.05272554504326
 20
118.4792596025451
 30
0.0
  0
SEQEND
  5
5D8
330
5D5
100
AcDbEntity
  8
LINIE
 48
10.0
  0
POLYLINE
  5
5F0
330
75
100
AcDbEntity
  8
LINIE
 48
10.0
100
AcDb2dPolyline
 66
     1
 10
0.0
 20
0.0
 30
0.0
 70
   128
  0
VERTEX
  5
5F1
330
5F0
100
AcDbEntity
  8
LINIE
 48
10.0
100
AcDbVertex
100
AcDb2dVertex
 10
87.16590236770562
 20
119.9076634569152
 30
0.0
  0
VERTEX
  5
5F2
330
5F0
100
AcDbEntity
  8
LINIE
 48
10.0
100
AcDbVertex
100
AcDb2dVertex
 10
87.15751241790703
 20
119.8993045015319
 30
0.0
  0
VERTEX
  5
5F4
330
5F0
100
AcDbEntity
  8
LINIE
 48
10.0
100
AcDbVertex
100
AcDb2dVertex
 10
87.14912723648003
 20
119.890951506613
 30
0.0
  0
VERTEX
  5
5F5
330
5F0
100
AcDbEntity
  8
LINIE
 48
10.0
100
AcDbVertex
100
AcDb2dVertex
 10
87.14074443923882
 20
119.8826020879729
 30
0.0
  0
VERTEX
  5
5F6
330
5F0
100
AcDbEntity
  8
LINIE
 48
10.0
100
AcDbVertex
100
AcDb2dVertex
 10
87.13236879455498
 20
119.8742574377043
 30
0.0
  0
VERTEX
  5
5F7
330
5F0
100
AcDbEntity
  8
LINIE
 48
10.0
100
AcDbVertex
100
AcDb2dVertex
 10
87.12399791824273
 20
119.8659187479003
 30
0.0
  0
VERTEX
  5
5F8
330
5F0
100
AcDbEntity
  8
LINIE
 48
10.0
100
AcDbVertex
100
AcDb2dVertex
 10
87.11563419448784
 20
119.8575836343749
 30
0.0
  0
VERTEX
  5
5F9
330
5F0
100
AcDbEntity
  8
LINIE
 48
10.0
100
AcDbVertex
100
AcDb2dVertex
 10
87.10727285491875
 20
119.8492532892211
 30
0.0
  0
VERTEX
  5
5FA
330
5F0
100
AcDbEntity
  8
LINIE
 48
10.0
100
AcDbVertex
100
AcDb2dVertex
 10
87.09891628372124
 20
119.8409277124389
 30
0.0
  0
VERTEX
  5
5FB
330
5F0
100
AcDbEntity
  8
LINIE
 48
10.0
100
AcDbVertex
100
AcDb2dVertex
 10
87.09056686508111
 20
119.8326080961211
 30
0.0
  0
VERTEX
  5
5FC
330
5F0
100
AcDbEntity
  8
LINIE
 48
10.0
100
AcDbVertex
100
AcDb2dVertex
 10
87.08221983062676
 20
119.824292056082
 30
0.0
  0
VERTEX
  5
5FD
330
5F0
100
AcDbEntity
  8
LINIE
 48
10.0
100
AcDbVertex
100
AcDb2dVertex
 10
87.07387994872979
 20
119.8159807844145
 30
0.0
  0
VERTEX
  5
5FE
330
5F0
100
AcDbEntity
  8
LINIE
 48
10.0
100
AcDbVertex
100
AcDb2dVertex
 10
87.0655448352044
 20
119.8076742811187
 30
0.0
  0
VERTEX
  5
5FF
330
5F0
100
AcDbEntity
  8
LINIE
 48
10.0
100
AcDbVertex
100
AcDb2dVertex
 10
87.05721449005059
 20
119.7993725461943
 30
0.0
  0
VERTEX
  5
600
330
5F0
100
AcDbEntity
  8
LINIE
 48
10.0
100
AcDbVertex
100
AcDb2dVertex
 10
87.04888652908257
 20
119.7910755796416
 30
0.0
  0
VERTEX
  5
601
330
5F0
100
AcDbEntity
  8
LINIE
 48
10.0
100
AcDbVertex
100
AcDb2dVertex
 10
87.04056572067193
 20
119.7827833814605
 30
0.0
  0
VERTEX
  5
602
330
5F0
100
AcDbEntity
  8
LINIE
 48
10.0
100
AcDbVertex
100
AcDb2dVertex
 10
87.03225206481866
 20
119.7744959516509
 30
0.0
  0
VERTEX
  5
603
330
5F0
100
AcDbEntity
  8
LINIE
 48
10.0
100
AcDbVertex
100
AcDb2dVertex
 10
87.02394079315117
 20
119.76621209812
 30
0.0
  0
VERTEX
  5
604
330
5F0
100
AcDbEntity
  8
LINIE
 48
10.0
100
AcDbVertex
100
AcDb2dVertex
 10
87.01563428985528
 20
119.7579342050536
 30
0.0
  0
VERTEX
  5
605
330
5F0
100
AcDbEntity
  8
LINIE
 48
10.0
100
AcDbVertex
100
AcDb2dVertex
 10
87.00733255493096
 20
119.7496610803588
 30
0.0
  0
VERTEX
  5
606
330
5F0
100
AcDbEntity
  8
LINIE
 48
10.0
100
AcDbVertex
100
AcDb2dVertex
 10
86.99903797256402
 20
119.7413915319426
 30
0.0
  0
VERTEX
  5
607
330
5F0
100
AcDbEntity
  8
LINIE
 48
10.0
100
AcDbVertex
100
AcDb2dVertex
 10
86.99074577438286
 20
119.733127943991
 30
0.0
  0
VERTEX
  5
608
330
5F0
100
AcDbEntity
  8
LINIE
 48
10.0
100
AcDbVertex
100
AcDb2dVertex
 10
86.98246072875909
 20
119.724867932318
 30
0.0
  0
VERTEX
  5
609
330
5F0
100
AcDbEntity
  8
LINIE
 48
10.0
100
AcDbVertex
100
AcDb2dVertex
 10
86.9741780673211
 20
119.7166126890166
 30
0.0
  0
VERTEX
  5
60A
330
5F0
100
AcDbEntity
  8
LINIE
 48
10.0
100
AcDbVertex
100
AcDb2dVertex
 10
86.96590255844048
 20
119.7083634061797
 30
0.0
  0
SEQEND
  5
5F3
330
5F0
100
AcDbEntity
  8
LINIE
 48
10.0
  0
ELLIPSE
  5
60B
330
75
100
AcDbEntity
  8
LINIE
 48
10.0
100
AcDbEllipse
 10
91.84528780001228
 20
107.24708019924
 30
0.0
 11
-80.81014351696529
 21
-5.949149574849952
 31
0.0
210
0.0
220
0.0
230
0.9999999999999998
 40
0.1602366875915965
 41
4.735154625581771
 42
4.758527375892853
  0
ELLIPSE
  5
60C
330
75
100
AcDbEntity
  8
LINIE
 48
10.0
100
AcDbEllipse
 10
91.84528780001235
 20
107.24708019924
 30
0.0
 11
80.81014351696559
 21
-5.949149574849937
 31
0.0
210
0.0
220
0.0
230
1.0
 40
0.1602366875915959
 41
1.617153758028385
 42
1.640526508339464
  0
POLYLINE
  5
60D
330
75
100
AcDbEntity
  8
LINIE
 48
10.0
100
AcDb2dPolyline
 66
     1
 10
0.0
 20
0.0
 30
0.0
 70
   128
  0
VERTEX
  5
60E
330
60D
100
AcDbEntity
  8
LINIE
 48
10.0
100
AcDbVertex
100
AcDb2dVertex
 10
86.96590255844048
 20
120.4082482976897
 30
0.0
  0
VERTEX
  5
60F
330
60D
100
AcDbEntity
  8
LINIE
 48
10.0
100
AcDbVertex
100
AcDb2dVertex
 10
86.9741780673211
 20
120.4153114480956
 30
0.0
  0
VERTEX
  5
611
330
60D
100
AcDbEntity
  8
LINIE
 48
10.0
100
AcDbVertex
100
AcDb2dVertex
 10
86.98246072875909
 20
120.4223793668731
 30
0.0
  0
VERTEX
  5
612
330
60D
100
AcDbEntity
  8
LINIE
 48
10.0
100
AcDbVertex
100
AcDb2dVertex
 10
86.99074577438286
 20
120.4294496698363
 30
0.0
  0
VERTEX
  5
613
330
60D
100
AcDbEntity
  8
LINIE
 48
10.0
100
AcDbVertex
100
AcDb2dVertex
 10
86.99903797256402
 20
120.4365247411711
 30
0.0
  0
VERTEX
  5
614
330
60D
100
AcDbEntity
  8
LINIE
 48
10.0
100
AcDbVertex
100
AcDb2dVertex
 10
87.00733255493096
 20
120.4436033887847
 30
0.0
  0
VERTEX
  5
615
330
60D
100
AcDbEntity
  8
LINIE
 48
10.0
100
AcDbVertex
100
AcDb2dVertex
 10
87.01563428985528
 20
120.4506868047698
 30
0.0
  0
VERTEX
  5
616
330
60D
100
AcDbEntity
  8
LINIE
 48
10.0
100
AcDbVertex
100
AcDb2dVertex
 10
87.02394079315117
 20
120.4577737970336
 30
0.0
  0
VERTEX
  5
617
330
60D
100
AcDbEntity
  8
LINIE
 48
10.0
100
AcDbVertex
100
AcDb2dVertex
 10
87.03225206481866
 20
120.4648643655761
 30
0.0
  0
VERTEX
  5
618
330
60D
100
AcDbEntity
  8
LINIE
 48
10.0
100
AcDbVertex
100
AcDb2dVertex
 10
87.04056572067193
 20
120.4719597024901
 30
0.0
  0
VERTEX
  5
619
330
60D
100
AcDbEntity
  8
LINIE
 48
10.0
100
AcDbVertex
100
AcDb2dVertex
 10
87.04888652908257
 20
120.47905742359
 30
0.0
  0
VERTEX
  5
61A
330
60D
100
AcDbEntity
  8
LINIE
 48
10.0
100
AcDbVertex
100
AcDb2dVertex
 10
87.05721449005059
 20
120.4861611051543
 30
0.0
  0
VERTEX
  5
61B
330
60D
100
AcDbEntity
  8
LINIE
 48
10.0
100
AcDbVertex
100
AcDb2dVertex
 10
87.0655448352044
 20
120.4932671709044
 30
0.0
  0
VERTEX
  5
61C
330
60D
100
AcDbEntity
  8
LINIE
 48
10.0
100
AcDbVertex
100
AcDb2dVertex
 10
87.07387994872979
 20
120.5003780050261
 30
0.0
  0
VERTEX
  5
61D
330
60D
100
AcDbEntity
  8
LINIE
 48
10.0
100
AcDbVertex
100
AcDb2dVertex
 10
87.08221983062676
 20
120.5074936075194
 30
0.0
  0
VERTEX
  5
61E
330
60D
100
AcDbEntity
  8
LINIE
 48
10.0
100
AcDbVertex
100
AcDb2dVertex
 10
87.09056686508111
 20
120.5146115941985
 30
0.0
  0
VERTEX
  5
61F
330
60D
100
AcDbEntity
  8
LINIE
 48
10.0
100
AcDbVertex
100
AcDb2dVertex
 10
87.09891628372124
 20
120.5217343492491
 30
0.0
  0
VERTEX
  5
620
330
60D
100
AcDbEntity
  8
LINIE
 48
10.0
100
AcDbVertex
100
AcDb2dVertex
 10
87.10727285491875
 20
120.5288618726714
 30
0.0
  0
VERTEX
  5
621
330
60D
100
AcDbEntity
  8
LINIE
 48
10.0
100
AcDbVertex
100
AcDb2dVertex
 10
87.11563419448784
 20
120.5359917802794
 30
0.0
  0
VERTEX
  5
622
330
60D
100
AcDbEntity
  8
LINIE
 48
10.0
100
AcDbVertex
100
AcDb2dVertex
 10
87.12399791824273
 20
120.5431276483519
 30
0.0
  0
VERTEX
  5
623
330
60D
100
AcDbEntity
  8
LINIE
 48
10.0
100
AcDbVertex
100
AcDb2dVertex
 10
87.13236879455498
 20
120.5502659006102
 30
0.0
  0
VERTEX
  5
624
330
60D
100
AcDbEntity
  8
LINIE
 48
10.0
100
AcDbVertex
100
AcDb2dVertex
 10
87.14074443923882
 20
120.5574089212401
 30
0.0
  0
VERTEX
  5
625
330
60D
100
AcDbEntity
  8
LINIE
 48
10.0
100
AcDbVertex
100
AcDb2dVertex
 10
87.14912723648003
 20
120.5645555181487
 30
0.0
  0
VERTEX
  5
626
330
60D
100
AcDbEntity
  8
LINIE
 48
10.0
100
AcDbVertex
100
AcDb2dVertex
 10
87.15751241790703
 20
120.5717068834288
 30
0.0
  0
VERTEX
  5
627
330
60D
100
AcDbEntity
  8
LINIE
 48
10.0
100
AcDbVertex
100
AcDb2dVertex
 10
87.16590236770562
 20
120.5788618249877
 30
0.0
  0
SEQEND
  5
610
330
60D
100
AcDbEntity
  8
LINIE
 48
10.0
  0
LINE
  5
628
330
75
100
AcDbEntity
  8
LINIE
 48
10.0
100
AcDbLine
 10
86.96590255844048
 20
119.7083630643838
 30
0.0
 11
86.96590255844048
 21
120.4082488526602
 31
0.0
  0
POLYLINE
  5
629
330
75
100
AcDbEntity
  8
LINIE
 48
10.0
100
AcDb2dPolyline
 66
     1
 10
0.0
 20
0.0
 30
0.0
 70
   128
  0
VERTEX
  5
62A
330
629
100
AcDbEntity
  8
LINIE
 48
10.0
100
AcDbVertex
100
AcDb2dVertex
 10
89.05272554504326
 20
120.4576069040282
 30
0.0
  0
VERTEX
  5
62B
330
629
100
AcDbEntity
  8
LINIE
 48
10.0
100
AcDbVertex
100
AcDb2dVertex
 10
89.10974573242119
 20
120.4525166673644
 30
0.0
  0
VERTEX
  5
62D
330
629
100
AcDbEntity
  8
LINIE
 48
10.0
100
AcDbVertex
100
AcDb2dVertex
 10
89.16521381484917
 20
120.4448717756255
 30
0.0
  0
VERTEX
  5
62E
330
629
100
AcDbEntity
  8
LINIE
 48
10.0
100
AcDbVertex
100
AcDb2dVertex
 10
89.2177755747979
 20
120.4347532911284
 30
0.0
  0
VERTEX
  5
62F
330
629
100
AcDbEntity
  8
LINIE
 48
10.0
100
AcDbVertex
100
AcDb2dVertex
 10
89.26637243377617
 20
120.4224771184905
 30
0.0
  0
VERTEX
  5
630
330
629
100
AcDbEntity
  8
LINIE
 48
10.0
100
AcDbVertex
100
AcDb2dVertex
 10
89.31000064956597
 20
120.4084283037169
 30
0.0
  0
VERTEX
  5
631
330
629
100
AcDbEntity
  8
LINIE
 48
10.0
100
AcDbVertex
100
AcDb2dVertex
 10
89.34856008636407
 20
120.3926414175017
 30
0.0
  0
VERTEX
  5
632
330
629
100
AcDbEntity
  8
LINIE
 48
10.0
100
AcDbVertex
100
AcDb2dVertex
 10
89.38309501754693
 20
120.3746634645446
 30
0.0
  0
VERTEX
  5
633
330
629
100
AcDbEntity
  8
LINIE
 48
10.0
100
AcDbVertex
100
AcDb2dVertex
 10
89.41259931671075
 20
120.3548103494628
 30
0.0
  0
VERTEX
  5
634
330
629
100
AcDbEntity
  8
LINIE
 48
10.0
100
AcDbVertex
100
AcDb2dVertex
 10
89.4359905635064
 20
120.3334313554747
 30
0.0
  0
VERTEX
  5
635
330
629
100
AcDbEntity
  8
LINIE
 48
10.0
100
AcDbVertex
100
AcDb2dVertex
 10
89.45265125381402
 20
120.3109663648589
 30
0.0
  0
VERTEX
  5
636
330
629
100
AcDbEntity
  8
LINIE
 48
10.0
100
AcDbVertex
100
AcDb2dVertex
 10
89.46260046111992
 20
120.2879935426696
 30
0.0
  0
VERTEX
  5
637
330
629
100
AcDbEntity
  8
LINIE
 48
10.0
100
AcDbVertex
100
AcDb2dVertex
 10
89.46590255844048
 20
120.26510297489
 30
0.0
  0
VERTEX
  5
638
330
629
100
AcDbEntity
  8
LINIE
 48
10.0
100
AcDbVertex
100
AcDb2dVertex
 10
89.46260046111992
 20
120.2419978303893
 30
0.0
  0
VERTEX
  5
639
330
629
100
AcDbEntity
  8
LINIE
 48
10.0
100
AcDbVertex
100
AcDb2dVertex
 10
89.45265125381402
 20
120.2183955831511
 30
0.0
  0
VERTEX
  5
63A
330
629
100
AcDbEntity
  8
LINIE
 48
10.0
100
AcDbVertex
100
AcDb2dVertex
 10
89.4359905635064
 20
120.1949125452025
 30
0.0
  0
VERTEX
  5
63B
330
629
100
AcDbEntity
  8
LINIE
 48
10.0
100
AcDbVertex
100
AcDb2dVertex
 10
89.41259931671075
 20
120.1721614522917
 30
0.0
  0
VERTEX
  5
63C
330
629
100
AcDbEntity
  8
LINIE
 48
10.0
100
AcDbVertex
100
AcDb2dVertex
 10
89.38309501754693
 20
120.1506751699431
 30
0.0
  0
VERTEX
  5
63D
330
629
100
AcDbEntity
  8
LINIE
 48
10.0
100
AcDbVertex
100
AcDb2dVertex
 10
89.34856008636407
 20
120.1309257669432
 30
0.0
  0
VERTEX
  5
63E
330
629
100
AcDbEntity
  8
LINIE
 48
10.0
100
AcDbVertex
100
AcDb2dVertex
 10
89.31000064956597
 20
120.1133412046416
 30
0.0
  0
VERTEX
  5
63F
330
629
100
AcDbEntity
  8
LINIE
 48
10.0
100
AcDbVertex
100
AcDb2dVertex
 10
89.26637243377617
 20
120.0974923295958
 30
0.0
  0
VERTEX
  5
640
330
629
100
AcDbEntity
  8
LINIE
 48
10.0
100
AcDbVertex
100
AcDb2dVertex
 10
89.2177755747979
 20
120.0834947748168
 30
0.0
  0
VERTEX
  5
641
330
629
100
AcDbEntity
  8
LINIE
 48
10.0
100
AcDbVertex
100
AcDb2dVertex
 10
89.16521381484917
 20
120.0718504114135
 30
0.0
  0
VERTEX
  5
642
330
629
100
AcDbEntity
  8
LINIE
 48
10.0
100
AcDbVertex
100
AcDb2dVertex
 10
89.10974573242119
 20
120.0629860086425
 30
0.0
  0
VERTEX
  5
643
330
629
100
AcDbEntity
  8
LINIE
 48
10.0
100
AcDbVertex
100
AcDb2dVertex
 10
89.05272554504326
 20
120.0570505781157
 30
0.0
  0
SEQEND
  5
62C
330
629
100
AcDbEntity
  8
LINIE
 48
10.0
  0
POLYLINE
  5
644
330
75
100
AcDbEntity
  8
LINIE
 48
10.0
100
AcDb2dPolyline
 66
     1
 10
0.0
 20
0.0
 30
0.0
 70
   128
  0
VERTEX
  5
645
330
644
100
AcDbEntity
  8
LINIE
 48
10.0
100
AcDbVertex
100
AcDb2dVertex
 10
87.16590236770562
 20
120.9907501859649
 30
0.0
  0
VERTEX
  5
646
330
644
100
AcDbEntity
  8
LINIE
 48
10.0
100
AcDbVertex
100
AcDb2dVertex
 10
87.15751241790703
 20
120.9821373147948
 30
0.0
  0
VERTEX
  5
648
330
644
100
AcDbEntity
  8
LINIE
 48
10.0
100
AcDbVertex
100
AcDb2dVertex
 10
87.14912723648003
 20
120.9735292119964
 30
0.0
  0
VERTEX
  5
649
330
644
100
AcDbEntity
  8
LINIE
 48
10.0
100
AcDbVertex
100
AcDb2dVertex
 10
87.14074443923882
 20
120.9649258775695
 30
0.0
  0
VERTEX
  5
64A
330
644
100
AcDbEntity
  8
LINIE
 48
10.0
100
AcDbVertex
100
AcDb2dVertex
 10
87.13236879455498
 20
120.9563285036071
 30
0.0
  0
VERTEX
  5
64B
330
644
100
AcDbEntity
  8
LINIE
 48
10.0
100
AcDbVertex
100
AcDb2dVertex
 10
87.12399791824273
 20
120.9477347059233
 30
0.0
  0
VERTEX
  5
64C
330
644
100
AcDbEntity
  8
LINIE
 48
10.0
100
AcDbVertex
100
AcDb2dVertex
 10
87.11563419448784
 20
120.9391456766112
 30
0.0
  0
VERTEX
  5
64D
330
644
100
AcDbEntity
  8
LINIE
 48
10.0
100
AcDbVertex
100
AcDb2dVertex
 10
87.10727285491875
 20
120.9305626077636
 30
0.0
  0
VERTEX
  5
64E
330
644
100
AcDbEntity
  8
LINIE
 48
10.0
100
AcDbVertex
100
AcDb2dVertex
 10
87.09891628372124
 20
120.9219843072875
 30
0.0
  0
VERTEX
  5
64F
330
644
100
AcDbEntity
  8
LINIE
 48
10.0
100
AcDbVertex
100
AcDb2dVertex
 10
87.09056686508111
 20
120.9134095830901
 30
0.0
  0
VERTEX
  5
650
330
644
100
AcDbEntity
  8
LINIE
 48
10.0
100
AcDbVertex
100
AcDb2dVertex
 10
87.08221983062676
 20
120.9048408193572
 30
0.0
  0
VERTEX
  5
651
330
644
100
AcDbEntity
  8
LINIE
 48
10.0
100
AcDbVertex
100
AcDb2dVertex
 10
87.07387994872979
 20
120.8962768239959
 30
0.0
  0
VERTEX
  5
652
330
644
100
AcDbEntity
  8
LINIE
 48
10.0
100
AcDbVertex
100
AcDb2dVertex
 10
87.0655448352044
 20
120.8877175970061
 30
0.0
  0
VERTEX
  5
653
330
644
100
AcDbEntity
  8
LINIE
 48
10.0
100
AcDbVertex
100
AcDb2dVertex
 10
87.05721449005059
 20
120.879163138388
 30
0.0
  0
VERTEX
  5
654
330
644
100
AcDbEntity
  8
LINIE
 48
10.0
100
AcDbVertex
100
AcDb2dVertex
 10
87.04888652908257
 20
120.8706134481414
 30
0.0
  0
VERTEX
  5
655
330
644
100
AcDbEntity
  8
LINIE
 48
10.0
100
AcDbVertex
100
AcDb2dVertex
 10
87.04056572067193
 20
120.8620685262664
 30
0.0
  0
VERTEX
  5
656
330
644
100
AcDbEntity
  8
LINIE
 48
10.0
100
AcDbVertex
100
AcDb2dVertex
 10
87.03225206481866
 20
120.8535283727629
 30
0.0
  0
VERTEX
  5
657
330
644
100
AcDbEntity
  8
LINIE
 48
10.0
100
AcDbVertex
100
AcDb2dVertex
 10
87.02394079315117
 20
120.8449929876311
 30
0.0
  0
VERTEX
  5
658
330
644
100
AcDbEntity
  8
LINIE
 48
10.0
100
AcDbVertex
100
AcDb2dVertex
 10
87.01563428985528
 20
120.8364635629638
 30
0.0
  0
VERTEX
  5
659
330
644
100
AcDbEntity
  8
LINIE
 48
10.0
100
AcDbVertex
100
AcDb2dVertex
 10
87.00733255493096
 20
120.8279377145751
 30
0.0
  0
VERTEX
  5
65A
330
644
100
AcDbEntity
  8
LINIE
 48
10.0
100
AcDbVertex
100
AcDb2dVertex
 10
86.99903797256402
 20
120.819416634558
 30
0.0
  0
VERTEX
  5
65B
330
644
100
AcDbEntity
  8
LINIE
 48
10.0
100
AcDbVertex
100
AcDb2dVertex
 10
86.99074577438286
 20
120.8109015150054
 30
0.0
  0
VERTEX
  5
65C
330
644
100
AcDbEntity
  8
LINIE
 48
10.0
100
AcDbVertex
100
AcDb2dVertex
 10
86.98246072875909
 20
120.8023899717314
 30
0.0
  0
VERTEX
  5
65D
330
644
100
AcDbEntity
  8
LINIE
 48
10.0
100
AcDbVertex
100
AcDb2dVertex
 10
86.9741780673211
 20
120.7938831968291
 30
0.0
  0
VERTEX
  5
65E
330
644
100
AcDbEntity
  8
LINIE
 48
10.0
100
AcDbVertex
100
AcDb2dVertex
 10
86.96590255844048
 20
120.7853823823912
 30
0.0
  0
SEQEND
  5
647
330
644
100
AcDbEntity
  8
LINIE
 48
10.0
  0
ELLIPSE
  5
65F
330
75
100
AcDbEntity
  8
LINIE
 48
10.0
100
AcDbEllipse
 10
91.84528780001228
 20
107.24708019924
 30
0.0
 11
-80.81405479135128
 21
-3.053382866100593
 31
0.0
210
0.0
220
0.0
230
0.9999999999999998
 40
0.1722352440902729
 41
4.740443077274504
 42
4.763815827585585
  0
ELLIPSE
  5
660
330
75
100
AcDbEntity
  8
LINIE
 48
10.0
100
AcDbEllipse
 10
91.84528780001235
 20
107.24708019924
 30
0.0
 11
80.81405479135156
 21
-3.053382866100575
 31
0.0
210
0.0
220
0.0
230
0.9999999999999998
 40
0.1722352440902723
 41
1.611865306335655
 42
1.635238056646734
  0
POLYLINE
  5
661
330
75
100
AcDbEntity
  8
LINIE
 48
10.0
100
AcDb2dPolyline
 66
     1
 10
0.0
 20
0.0
 30
0.0
 70
   128
  0
VERTEX
  5
662
330
661
100
AcDbEntity
  8
LINIE
 48
10.0
100
AcDbVertex
100
AcDb2dVertex
 10
86.96590255844048
 20
121.143142573355
 30
0.0
  0
VERTEX
  5
663
330
661
100
AcDbEntity
  8
LINIE
 48
10.0
100
AcDbVertex
100
AcDb2dVertex
 10
86.9741780673211
 20
121.1510378046019
 30
0.0
  0
VERTEX
  5
665
330
661
100
AcDbEntity
  8
LINIE
 48
10.0
100
AcDbVertex
100
AcDb2dVertex
 10
86.98246072875909
 20
121.1589366121276
 30
0.0
  0
VERTEX
  5
666
330
661
100
AcDbEntity
  8
LINIE
 48
10.0
100
AcDbVertex
100
AcDb2dVertex
 10
86.99074577438286
 20
121.1668401880248
 30
0.0
  0
VERTEX
  5
667
330
661
100
AcDbEntity
  8
LINIE
 48
10.0
100
AcDbVertex
100
AcDb2dVertex
 10
86.99903797256402
 20
121.1747485322936
 30
0.0
  0
VERTEX
  5
668
330
661
100
AcDbEntity
  8
LINIE
 48
10.0
100
AcDbVertex
100
AcDb2dVertex
 10
87.00733255493096
 20
121.1826604528411
 30
0.0
  0
VERTEX
  5
669
330
661
100
AcDbEntity
  8
LINIE
 48
10.0
100
AcDbVertex
100
AcDb2dVertex
 10
87.01563428985528
 20
121.1905771417601
 30
0.0
  0
VERTEX
  5
66A
330
661
100
AcDbEntity
  8
LINIE
 48
10.0
100
AcDbVertex
100
AcDb2dVertex
 10
87.02394079315117
 20
121.1984985990508
 30
0.0
  0
VERTEX
  5
66B
330
661
100
AcDbEntity
  8
LINIE
 48
10.0
100
AcDbVertex
100
AcDb2dVertex
 10
87.03225206481866
 20
121.206424824713
 30
0.0
  0
VERTEX
  5
66C
330
661
100
AcDbEntity
  8
LINIE
 48
10.0
100
AcDbVertex
100
AcDb2dVertex
 10
87.04056572067193
 20
121.2143546266539
 30
0.0
  0
VERTEX
  5
66D
330
661
100
AcDbEntity
  8
LINIE
 48
10.0
100
AcDbVertex
100
AcDb2dVertex
 10
87.04888652908257
 20
121.2222891969664
 30
0.0
  0
VERTEX
  5
66E
330
661
100
AcDbEntity
  8
LINIE
 48
10.0
100
AcDbVertex
100
AcDb2dVertex
 10
87.05721449005059
 20
121.2302285356505
 30
0.0
  0
VERTEX
  5
66F
330
661
100
AcDbEntity
  8
LINIE
 48
10.0
100
AcDbVertex
100
AcDb2dVertex
 10
87.0655448352044
 20
121.2381726427062
 30
0.0
  0
VERTEX
  5
670
330
661
100
AcDbEntity
  8
LINIE
 48
10.0
100
AcDbVertex
100
AcDb2dVertex
 10
87.07387994872979
 20
121.2461203260405
 30
0.0
  0
VERTEX
  5
671
330
661
100
AcDbEntity
  8
LINIE
 48
10.0
100
AcDbVertex
100
AcDb2dVertex
 10
87.08221983062676
 20
121.2540727777465
 30
0.0
  0
VERTEX
  5
672
330
661
100
AcDbEntity
  8
LINIE
 48
10.0
100
AcDbVertex
100
AcDb2dVertex
 10
87.09056686508111
 20
121.262029997824
 30
0.0
  0
VERTEX
  5
673
330
661
100
AcDbEntity
  8
LINIE
 48
10.0
100
AcDbVertex
100
AcDb2dVertex
 10
87.09891628372124
 20
121.2699919862731
 30
0.0
  0
VERTEX
  5
674
330
661
100
AcDbEntity
  8
LINIE
 48
10.0
100
AcDbVertex
100
AcDb2dVertex
 10
87.10727285491875
 20
121.2779575510009
 30
0.0
  0
VERTEX
  5
675
330
661
100
AcDbEntity
  8
LINIE
 48
10.0
100
AcDbVertex
100
AcDb2dVertex
 10
87.11563419448784
 20
121.2859290761931
 30
0.0
  0
VERTEX
  5
676
330
661
100
AcDbEntity
  8
LINIE
 48
10.0
100
AcDbVertex
100
AcDb2dVertex
 10
87.12399791824273
 20
121.2939041776641
 30
0.0
  0
VERTEX
  5
677
330
661
100
AcDbEntity
  8
LINIE
 48
10.0
100
AcDbVertex
100
AcDb2dVertex
 10
87.13236879455498
 20
121.3018828554137
 30
0.0
  0
VERTEX
  5
678
330
661
100
AcDbEntity
  8
LINIE
 48
10.0
100
AcDbVertex
100
AcDb2dVertex
 10
87.14074443923882
 20
121.3098674936278
 30
0.0
  0
VERTEX
  5
679
330
661
100
AcDbEntity
  8
LINIE
 48
10.0
100
AcDbVertex
100
AcDb2dVertex
 10
87.14912723648003
 20
121.3178557081206
 30
0.0
  0
VERTEX
  5
67A
330
661
100
AcDbEntity
  8
LINIE
 48
10.0
100
AcDbVertex
100
AcDb2dVertex
 10
87.15751241790703
 20
121.325848690985
 30
0.0
  0
VERTEX
  5
67B
330
661
100
AcDbEntity
  8
LINIE
 48
10.0
100
AcDbVertex
100
AcDb2dVertex
 10
87.16590236770562
 20
121.333846442221
 30
0.0
  0
SEQEND
  5
664
330
661
100
AcDbEntity
  8
LINIE
 48
10.0
  0
LINE
  5
67C
330
75
100
AcDbEntity
  8
LINIE
 48
10.0
100
AcDbLine
 10
86.96590255844048
 20
120.7853822579048
 30
0.0
 11
86.96590255844048
 21
121.1431430844669
 31
0.0
  0
POLYLINE
  5
67D
330
75
100
AcDbEntity
  8
LINIE
 48
10.0
100
AcDb2dPolyline
 66
     1
 10
0.0
 20
0.0
 30
0.0
 70
   128
  0
VERTEX
  5
67E
330
67D
100
AcDbEntity
  8
LINIE
 48
10.0
100
AcDbVertex
100
AcDb2dVertex
 10
89.05272554504326
 20
121.279736153601
 30
0.0
  0
VERTEX
  5
67F
330
67D
100
AcDbEntity
  8
LINIE
 48
10.0
100
AcDbVertex
100
AcDb2dVertex
 10
89.10974573242119
 20
121.2773698492034
 30
0.0
  0
VERTEX
  5
681
330
67D
100
AcDbEntity
  8
LINIE
 48
10.0
100
AcDbVertex
100
AcDb2dVertex
 10
89.16521381484917
 20
121.27380310726
 30
0.0
  0
VERTEX
  5
682
330
67D
100
AcDbEntity
  8
LINIE
 48
10.0
100
AcDbVertex
100
AcDb2dVertex
 10
89.2177755747979
 20
121.2690585775359
 30
0.0
  0
VERTEX
  5
683
330
67D
100
AcDbEntity
  8
LINIE
 48
10.0
100
AcDbVertex
100
AcDb2dVertex
 10
89.26637243377617
 20
121.2632638139708
 30
0.0
  0
VERTEX
  5
684
330
67D
100
AcDbEntity
  8
LINIE
 48
10.0
100
AcDbVertex
100
AcDb2dVertex
 10
89.31000064956597
 20
121.2565869016631
 30
0.0
  0
VERTEX
  5
685
330
67D
100
AcDbEntity
  8
LINIE
 48
10.0
100
AcDbVertex
100
AcDb2dVertex
 10
89.34856008636407
 20
121.2490194959624
 30
0.0
  0
VERTEX
  5
686
330
67D
100
AcDbEntity
  8
LINIE
 48
10.0
100
AcDbVertex
100
AcDb2dVertex
 10
89.38309501754693
 20
121.2403255624755
 30
0.0
  0
VERTEX
  5
687
330
67D
100
AcDbEntity
  8
LINIE
 48
10.0
100
AcDbVertex
100
AcDb2dVertex
 10
89.41259931671075
 20
121.2306350393279
 30
0.0
  0
VERTEX
  5
688
330
67D
100
AcDbEntity
  8
LINIE
 48
10.0
100
AcDbVertex
100
AcDb2dVertex
 10
89.4359905635064
 20
121.2200909776671
 30
0.0
  0
VERTEX
  5
689
330
67D
100
AcDbEntity
  8
LINIE
 48
10.0
100
AcDbVertex
100
AcDb2dVertex
 10
89.45265125381402
 20
121.2088912649138
 30
0.0
  0
VERTEX
  5
68A
330
67D
100
AcDbEntity
  8
LINIE
 48
10.0
100
AcDbVertex
100
AcDb2dVertex
 10
89.46260046111992
 20
121.1973243875487
 30
0.0
  0
VERTEX
  5
68B
330
67D
100
AcDbEntity
  8
LINIE
 48
10.0
100
AcDbVertex
100
AcDb2dVertex
 10
89.46590255844048
 20
121.1856836004241
 30
0.0
  0
VERTEX
  5
68C
330
67D
100
AcDbEntity
  8
LINIE
 48
10.0
100
AcDbVertex
100
AcDb2dVertex
 10
89.46260046111992
 20
121.1738127393706
 30
0.0
  0
VERTEX
  5
68D
330
67D
100
AcDbEntity
  8
LINIE
 48
10.0
100
AcDbVertex
100
AcDb2dVertex
 10
89.45265125381402
 20
121.1615723295195
 30
0.0
  0
VERTEX
  5
68E
330
67D
100
AcDbEntity
  8
LINIE
 48
10.0
100
AcDbVertex
100
AcDb2dVertex
 10
89.4359905635064
 20
121.1492842359526
 30
0.0
  0
VERTEX
  5
68F
330
67D
100
AcDbEntity
  8
LINIE
 48
10.0
100
AcDbVertex
100
AcDb2dVertex
 10
89.41259931671075
 20
121.1372691316588
 30
0.0
  0
VERTEX
  5
690
330
67D
100
AcDbEntity
  8
LINIE
 48
10.0
100
AcDbVertex
100
AcDb2dVertex
 10
89.38309501754693
 20
121.1258298082335
 30
0.0
  0
VERTEX
  5
691
330
67D
100
AcDbEntity
  8
LINIE
 48
10.0
100
AcDbVertex
100
AcDb2dVertex
 10
89.34856008636407
 20
121.1152380628569
 30
0.0
  0
VERTEX
  5
692
330
67D
100
AcDbEntity
  8
LINIE
 48
10.0
100
AcDbVertex
100
AcDb2dVertex
 10
89.31000064956597
 20
121.1057466192229
 30
0.0
  0
VERTEX
  5
693
330
67D
100
AcDbEntity
  8
LINIE
 48
10.0
100
AcDbVertex
100
AcDb2dVertex
 10
89.26637243377617
 20
121.0971420927031
 30
0.0
  0
VERTEX
  5
694
330
67D
100
AcDbEntity
  8
LINIE
 48
10.0
100
AcDbVertex
100
AcDb2dVertex
 10
89.2177755747979
 20
121.0895055456145
 30
0.0
  0
VERTEX
  5
695
330
67D
100
AcDbEntity
  8
LINIE
 48
10.0
100
AcDbVertex
100
AcDb2dVertex
 10
89.16521381484917
 20
121.0831266565306
 30
0.0
  0
VERTEX
  5
696
330
67D
100
AcDbEntity
  8
LINIE
 48
10.0
100
AcDbVertex
100
AcDb2dVertex
 10
89.10974573242119
 20
121.0782533807738
 30
0.0
  0
VERTEX
  5
697
330
67D
100
AcDbEntity
  8
LINIE
 48
10.0
100
AcDbVertex
100
AcDb2dVertex
 10
89.05272554504326
 20
121.0749834699614
 30
0.0
  0
SEQEND
  5
680
330
67D
100
AcDbEntity
  8
LINIE
 48
10.0
  0
POLYLINE
  5
698
330
75
100
AcDbEntity
  8
LINIE
 48
10.0
100
AcDb2dPolyline
 66
     1
 10
0.0
 20
0.0
 30
0.0
 70
   128
  0
VERTEX
  5
699
330
698
100
AcDbEntity
  8
LINIE
 48
10.0
100
AcDbVertex
100
AcDb2dVertex
 10
87.16590236770562
 20
121.4731722993834
 30
0.0
  0
VERTEX
  5
69A
330
698
100
AcDbEntity
  8
LINIE
 48
10.0
100
AcDbVertex
100
AcDb2dVertex
 10
87.15751241790703
 20
121.4646822137816
 30
0.0
  0
VERTEX
  5
69C
330
698
100
AcDbEntity
  8
LINIE
 48
10.0
100
AcDbVertex
100
AcDb2dVertex
 10
87.14912723648003
 20
121.4561957044585
 30
0.0
  0
VERTEX
  5
69D
330
698
100
AcDbEntity
  8
LINIE
 48
10.0
100
AcDbVertex
100
AcDb2dVertex
 10
87.14074443923882
 20
121.4477151555999
 30
0.0
  0
VERTEX
  5
69E
330
698
100
AcDbEntity
  8
LINIE
 48
10.0
100
AcDbVertex
100
AcDb2dVertex
 10
87.13236879455498
 20
121.4392381830199
 30
0.0
  0
VERTEX
  5
69F
330
698
100
AcDbEntity
  8
LINIE
 48
10.0
100
AcDbVertex
100
AcDb2dVertex
 10
87.12399791824273
 20
121.4307671709044
 30
0.0
  0
VERTEX
  5
6A0
330
698
100
AcDbEntity
  8
LINIE
 48
10.0
100
AcDbVertex
100
AcDb2dVertex
 10
87.11563419448784
 20
121.4222997350676
 30
0.0
  0
VERTEX
  5
6A1
330
698
100
AcDbEntity
  8
LINIE
 48
10.0
100
AcDbVertex
100
AcDb2dVertex
 10
87.10727285491875
 20
121.4138382596953
 30
0.0
  0
VERTEX
  5
6A2
330
698
100
AcDbEntity
  8
LINIE
 48
10.0
100
AcDbVertex
100
AcDb2dVertex
 10
87.09891628372124
 20
121.4053803606017
 30
0.0
  0
VERTEX
  5
6A3
330
698
100
AcDbEntity
  8
LINIE
 48
10.0
100
AcDbVertex
100
AcDb2dVertex
 10
87.09056686508111
 20
121.3969284219725
 30
0.0
  0
VERTEX
  5
6A4
330
698
100
AcDbEntity
  8
LINIE
 48
10.0
100
AcDbVertex
100
AcDb2dVertex
 10
87.08221983062676
 20
121.388481251715
 30
0.0
  0
VERTEX
  5
6A5
330
698
100
AcDbEntity
  8
LINIE
 48
10.0
100
AcDbVertex
100
AcDb2dVertex
 10
87.07387994872979
 20
121.3800376577361
 30
0.0
  0
VERTEX
  5
6A6
330
698
100
AcDbEntity
  8
LINIE
 48
10.0
100
AcDbVertex
100
AcDb2dVertex
 10
87.0655448352044
 20
121.3716000242217
 30
0.0
  0
VERTEX
  5
6A7
330
698
100
AcDbEntity
  8
LINIE
 48
10.0
100
AcDbVertex
100
AcDb2dVertex
 10
87.05721449005059
 20
121.363165966986
 30
0.0
  0
VERTEX
  5
6A8
330
698
100
AcDbEntity
  8
LINIE
 48
10.0
100
AcDbVertex
100
AcDb2dVertex
 10
87.04888652908257
 20
121.3547378702147
 30
0.0
  0
VERTEX
  5
6A9
330
698
100
AcDbEntity
  8
LINIE
 48
10.0
100
AcDbVertex
100
AcDb2dVertex
 10
87.04056572067193
 20
121.3463133497222
 30
0.0
  0
VERTEX
  5
6AA
330
698
100
AcDbEntity
  8
LINIE
 48
10.0
100
AcDbVertex
100
AcDb2dVertex
 10
87.03225206481866
 20
121.3378947896941
 30
0.0
  0
VERTEX
  5
6AB
330
698
100
AcDbEntity
  8
LINIE
 48
10.0
100
AcDbVertex
100
AcDb2dVertex
 10
87.02394079315117
 20
121.3294809980375
 30
0.0
  0
VERTEX
  5
6AC
330
698
100
AcDbEntity
  8
LINIE
 48
10.0
100
AcDbVertex
100
AcDb2dVertex
 10
87.01563428985528
 20
121.3210707826598
 30
0.0
  0
VERTEX
  5
6AD
330
698
100
AcDbEntity
  8
LINIE
 48
10.0
100
AcDbVertex
100
AcDb2dVertex
 10
87.00733255493096
 20
121.3126665277465
 30
0.0
  0
VERTEX
  5
6AE
330
698
100
AcDbEntity
  8
LINIE
 48
10.0
100
AcDbVertex
100
AcDb2dVertex
 10
86.99903797256402
 20
121.3042658491118
 30
0.0
  0
VERTEX
  5
6AF
330
698
100
AcDbEntity
  8
LINIE
 48
10.0
100
AcDbVertex
100
AcDb2dVertex
 10
86.99074577438286
 20
121.2958699388487
 30
0.0
  0
VERTEX
  5
6B0
330
698
100
AcDbEntity
  8
LINIE
 48
10.0
100
AcDbVertex
100
AcDb2dVertex
 10
86.98246072875909
 20
121.2874799890502
 30
0.0
  0
VERTEX
  5
6B1
330
698
100
AcDbEntity
  8
LINIE
 48
10.0
100
AcDbVertex
100
AcDb2dVertex
 10
86.9741780673211
 20
121.2790936155303
 30
0.0
  0
VERTEX
  5
6B2
330
698
100
AcDbEntity
  8
LINIE
 48
10.0
100
AcDbVertex
100
AcDb2dVertex
 10
86.96590255844048
 20
121.2707132024749
 30
0.0
  0
SEQEND
  5
69B
330
698
100
AcDbEntity
  8
LINIE
 48
10.0
  0
ELLIPSE
  5
6B3
330
75
100
AcDbEntity
  8
LINIE
 48
10.0
100
AcDbEllipse
 10
91.84528780001228
 20
107.24708019924
 30
0.0
 11
-80.81576592955228
 21
-0.0000000000000068
 31
0.0
210
0.0
220
0.0
230
1.0
 40
0.1763269807084653
 41
4.746950518599976
 42
4.770323268911056
  0
POLYLINE
  5
6B4
330
75
100
AcDbEntity
  8
LINIE
 48
10.0
100
AcDb2dPolyline
 66
     1
 10
0.0
 20
0.0
 30
0.0
 70
   128
  0
VERTEX
  5
6B5
330
6B4
100
AcDbEntity
  8
LINIE
 48
10.0
100
AcDbVertex
100
AcDb2dVertex
 10
89.46590255844048
 20
121.4970797224028
 30
0.0
  0
VERTEX
  5
6B6
330
6B4
100
AcDbEntity
  8
LINIE
 48
10.0
100
AcDbVertex
100
AcDb2dVertex
 10
89.46507763015679
 20
121.4970499200805
 30
0.0
  0
VERTEX
  5
6B8
330
6B4
100
AcDbEntity
  8
LINIE
 48
10.0
100
AcDbVertex
100
AcDb2dVertex
 10
89.46260046111992
 20
121.4969628972991
 30
0.0
  0
VERTEX
  5
6B9
330
6B4
100
AcDbEntity
  8
LINIE
 48
10.0
100
AcDbVertex
100
AcDb2dVertex
 10
89.45846151458672
 20
121.4968174619658
 30
0.0
  0
VERTEX
  5
6BA
330
6B4
100
AcDbEntity
  8
LINIE
 48
10.0
100
AcDbVertex
100
AcDb2dVertex
 10
89.45265125381402
 20
121.4966183824523
 30
0.0
  0
VERTEX
  5
6BB
330
6B4
100
AcDbEntity
  8
LINIE
 48
10.0
100
AcDbVertex
100
AcDb2dVertex
 10
89.44516491043023
 20
121.4963656587584
 30
0.0
  0
VERTEX
  5
6BC
330
6B4
100
AcDbEntity
  8
LINIE
 48
10.0
100
AcDbVertex
100
AcDb2dVertex
 10
89.4359905635064
 20
121.4960616750701
 30
0.0
  0
VERTEX
  5
6BD
330
6B4
100
AcDbEntity
  8
LINIE
 48
10.0
100
AcDbVertex
100
AcDb2dVertex
 10
89.42512344467095
 20
121.4957076234801
 30
0.0
  0
VERTEX
  5
6BE
330
6B4
100
AcDbEntity
  8
LINIE
 48
10.0
100
AcDbVertex
100
AcDb2dVertex
 10
89.41259931671075
 20
121.495309464453
 30
0.0
  0
VERTEX
  5
6BF
330
6B4
100
AcDbEntity
  8
LINIE
 48
10.0
100
AcDbVertex
100
AcDb2dVertex
 10
89.39854454147271
 20
121.4948767347319
 30
0.0
  0
VERTEX
  5
6C0
330
6B4
100
AcDbEntity
  8
LINIE
 48
10.0
100
AcDbVertex
100
AcDb2dVertex
 10
89.38309501754693
 20
121.4944165868743
 30
0.0
  0
VERTEX
  5
6C1
330
6B4
100
AcDbEntity
  8
LINIE
 48
10.0
100
AcDbVertex
100
AcDb2dVertex
 10
89.36638664352349
 20
121.4939373655303
 30
0.0
  0
VERTEX
  5
6C2
330
6B4
100
AcDbEntity
  8
LINIE
 48
10.0
100
AcDbVertex
100
AcDb2dVertex
 10
89.34856008636407
 20
121.4934462232573
 30
0.0
  0
VERTEX
  5
6C3
330
6B4
100
AcDbEntity
  8
LINIE
 48
10.0
100
AcDbVertex
100
AcDb2dVertex
 10
89.32974647628716
 20
121.4929526967986
 30
0.0
  0
VERTEX
  5
6C4
330
6B4
100
AcDbEntity
  8
LINIE
 48
10.0
100
AcDbVertex
100
AcDb2dVertex
 10
89.31000064956597
 20
121.4924627466185
 30
0.0
  0
VERTEX
  5
6C5
330
6B4
100
AcDbEntity
  8
LINIE
 48
10.0
100
AcDbVertex
100
AcDb2dVertex
 10
89.2888696109002
 20
121.4919692201598
 30
0.0
  0
VERTEX
  5
6C6
330
6B4
100
AcDbEntity
  8
LINIE
 48
10.0
100
AcDbVertex
100
AcDb2dVertex
 10
89.26637243377617
 20
121.4914780778868
 30
0.0
  0
VERTEX
  5
6C7
330
6B4
100
AcDbEntity
  8
LINIE
 48
10.0
100
AcDbVertex
100
AcDb2dVertex
 10
89.24263309585503
 20
121.4909976644499
 30
0.0
  0
VERTEX
  5
6C8
330
6B4
100
AcDbEntity
  8
LINIE
 48
10.0
100
AcDbVertex
100
AcDb2dVertex
 10
89.2177755747979
 20
121.4905351324065
 30
0.0
  0
VERTEX
  5
6C9
330
6B4
100
AcDbEntity
  8
LINIE
 48
10.0
100
AcDbVertex
100
AcDb2dVertex
 10
89.1919286166375
 20
121.4901000184996
 30
0.0
  0
VERTEX
  5
6CA
330
6B4
100
AcDbEntity
  8
LINIE
 48
10.0
100
AcDbVertex
100
AcDb2dVertex
 10
89.16521381484917
 20
121.4897006673796
 30
0.0
  0
VERTEX
  5
6CB
330
6B4
100
AcDbEntity
  8
LINIE
 48
10.0
100
AcDbVertex
100
AcDb2dVertex
 10
89.13776468383721
 20
121.489343039511
 30
0.0
  0
VERTEX
  5
6CC
330
6B4
100
AcDbEntity
  8
LINIE
 48
10.0
100
AcDbVertex
100
AcDb2dVertex
 10
89.10974573242119
 20
121.4890330953582
 30
0.0
  0
VERTEX
  5
6CD
330
6B4
100
AcDbEntity
  8
LINIE
 48
10.0
100
AcDbVertex
100
AcDb2dVertex
 10
89.08134054290703
 20
121.4887744111998
 30
0.0
  0
VERTEX
  5
6CE
330
6B4
100
AcDbEntity
  8
LINIE
 48
10.0
100
AcDbVertex
100
AcDb2dVertex
 10
89.05272554504326
 20
121.4885705633147
 30
0.0
  0
SEQEND
  5
6B7
330
6B4
100
AcDbEntity
  8
LINIE
 48
10.0
  0
LINE
  5
6CF
330
75
100
AcDbEntity
  8
0
100
AcDbLine
 10
90.96590255844047
 20
92.99708019924
 30
0.0
 11
90.96590255844047
 21
121.49708019924
 31
0.0
  0
LINE
  5
6D0
330
75
100
AcDbEntity
  8
LINIE
 48
10.0
100
AcDbLine
 10
87.16590255844051
 20
93.02098773144996
 30
0.0
 11
87.16590255844051
 21
93.16031365891209
 31
0.0
  0
LINE
  5
6D1
330
75
100
AcDbEntity
  8
LINIE
 48
10.0
100
AcDbLine
 10
87.16590255844051
 20
121.3338467395679
 30
0.0
 11
87.16590255844051
 21
121.47317266703
 31
0.0
  0
LINE
  5
6D2
330
75
100
AcDbEntity
  8
LINIE
 48
10.0
100
AcDbLine
 10
87.16590255844051
 20
120.578861518488
 30
0.0
 11
87.16590255844051
 21
120.9907500892842
 31
0.0
  0
LINE
  5
6D3
330
75
100
AcDbEntity
  8
LINIE
 48
10.0
100
AcDbLine
 10
87.16590255844051
 20
119.2412134807725
 30
0.0
 11
87.16590255844051
 21
119.9076631878984
 31
0.0
  0
LINE
  5
6D4
330
75
100
AcDbEntity
  8
LINIE
 48
10.0
100
AcDbLine
 10
87.16590255844051
 20
117.379364264417
 30
0.0
 11
87.16590255844051
 21
118.2712480576906
 31
0.0
  0
LINE
  5
6D5
330
75
100
AcDbEntity
  8
LINIE
 48
10.0
100
AcDbLine
 10
87.16590255844051
 20
115.07468561432
 30
0.0
 11
87.16590255844051
 21
116.1530238922421
 31
0.0
  0
LINE
  5
6D6
330
75
100
AcDbEntity
  8
LINIE
 48
10.0
100
AcDbLine
 10
87.16590255844051
 20
112.4279030465659
 30
0.0
 11
87.16590255844051
 21
113.6455672519501
 31
0.0
  0
LINE
  5
6D7
330
75
100
AcDbEntity
  8
LINIE
 48
10.0
100
AcDbLine
 10
87.16590255844051
 20
109.5546936600374
 30
0.0
 11
87.16590255844051
 21
110.8584660241072
 31
0.0
  0
LINE
  5
6D8
330
75
100
AcDbEntity
  8
LINIE
 48
10.0
100
AcDbLine
 10
87.16590255844051
 20
106.5806304921141
 30
0.0
 11
87.16590255844051
 21
107.9135299063659
 31
0.0
  0
LINE
  5
6D9
330
75
100
AcDbEntity
  8
LINIE
 48
10.0
100
AcDbLine
 10
87.16590255844051
 20
103.6356943743727
 30
0.0
 11
87.16590255844051
 21
104.9394667384426
 31
0.0
  0
LINE
  5
6DA
330
75
100
AcDbEntity
  8
LINIE
 48
10.0
100
AcDbLine
 10
87.16590255844051
 20
100.8485931465299
 30
0.0
 11
87.16590255844051
 21
102.0662573519141
 31
0.0
  0
LINE
  5
6DB
330
75
100
AcDbEntity
  8
LINIE
 48
10.0
100
AcDbLine
 10
87.16590255844051
 20
98.34113650623795
 30
0.0
 11
87.16590255844051
 21
99.41947478416004
 31
0.0
  0
LINE
  5
6DC
330
75
100
AcDbEntity
  8
LINIE
 48
10.0
100
AcDbLine
 10
87.16590255844051
 20
96.22291234078938
 30
0.0
 11
87.16590255844051
 21
97.11479613406305
 31
0.0
  0
LINE
  5
6DD
330
75
100
AcDbEntity
  8
LINIE
 48
10.0
100
AcDbLine
 10
87.16590255844051
 20
94.58649721058163
 30
0.0
 11
87.16590255844051
 21
95.25294691770751
 31
0.0
  0
LINE
  5
6DE
330
75
100
AcDbEntity
  8
LINIE
 48
10.0
100
AcDbLine
 10
87.16590255844051
 20
93.50341030919578
 30
0.0
 11
87.16590255844051
 21
93.91529887999201
 31
0.0
  0
LINE
  5
6DF
330
75
100
AcDbEntity
  8
LINIE
 48
10.0
100
AcDbLine
 10
86.96590255844048
 20
121.1431430844669
 30
0.0
 11
86.96590255844048
 21
121.2707126874813
 31
0.0
  0
LINE
  5
6E0
330
75
100
AcDbEntity
  8
LINIE
 48
10.0
100
AcDbLine
 10
86.96590255844048
 20
120.4082488526603
 30
0.0
 11
86.96590255844048
 21
120.7853822579048
 31
0.0
  0
LINE
  5
6E1
330
75
100
AcDbEntity
  8
LINIE
 48
10.0
100
AcDbLine
 10
86.96590255844048
 20
119.0981483964051
 30
0.0
 11
86.96590255844048
 21
119.7083630643838
 31
0.0
  0
LINE
  5
6E2
330
75
100
AcDbEntity
  8
LINIE
 48
10.0
100
AcDbLine
 10
86.96590255844048
 20
117.2700993921992
 30
0.0
 11
86.96590255844048
 21
118.0867260137866
 31
0.0
  0
LINE
  5
6E3
330
75
100
AcDbEntity
  8
LINIE
 48
10.0
100
AcDbLine
 10
86.96590255844048
 20
115.0039963534788
 30
0.0
 11
86.96590255844048
 21
115.9913444267021
 31
0.0
  0
LINE
  5
6E4
330
75
100
AcDbEntity
  8
LINIE
 48
10.0
100
AcDbLine
 10
86.96590255844048
 20
112.3988788570048
 30
0.0
 11
86.96590255844048
 21
113.5137965332424
 31
0.0
  0
LINE
  5
6E5
330
75
100
AcDbEntity
  8
LINIE
 48
10.0
100
AcDbLine
 10
86.96590255844048
 20
109.5686030381137
 30
0.0
 11
86.96590255844048
 21
110.7623630649456
 31
0.0
  0
LINE
  5
6E6
330
75
100
AcDbEntity
  8
LINIE
 48
10.0
100
AcDbLine
 10
86.96590255844048
 20
106.6368655312613
 30
0.0
 11
86.96590255844048
 21
107.8572948672187
 31
0.0
  0
LINE
  5
6E7
330
75
100
AcDbEntity
  8
LINIE
 48
10.0
100
AcDbLine
 10
86.96590255844048
 20
103.7317973335344
 30
0.0
 11
86.96590255844048
 21
104.9255573603663
 31
0.0
  0
LINE
  5
6E8
330
75
100
AcDbEntity
  8
LINIE
 48
10.0
100
AcDbLine
 10
86.96590255844048
 20
100.9803638652376
 30
0.0
 11
86.96590255844048
 21
102.0952815414752
 31
0.0
  0
LINE
  5
6E9
330
75
100
AcDbEntity
  8
LINIE
 48
10.0
100
AcDbLine
 10
86.96590255844048
 20
98.50281597177792
 30
0.0
 11
86.96590255844048
 21
99.49016404500122
 31
0.0
  0
LINE
  5
6EA
330
75
100
AcDbEntity
  8
LINIE
 48
10.0
100
AcDbLine
 10
86.96590255844048
 20
96.4074343846935
 30
0.0
 11
86.96590255844048
 21
97.22406100628081
 31
0.0
  0
LINE
  5
6EB
330
75
100
AcDbEntity
  8
LINIE
 48
10.0
100
AcDbLine
 10
86.96590255844048
 20
94.78579733409624
 30
0.0
 11
86.96590255844048
 21
95.39601200207492
 31
0.0
  0
LINE
  5
6EC
330
75
100
AcDbEntity
  8
LINIE
 48
10.0
100
AcDbLine
 10
86.96590255844048
 20
93.22344771099876
 30
0.0
 11
86.96590255844048
 21
93.35101731401316
 31
0.0
  0
LINE
  5
6ED
330
75
100
AcDbEntity
  8
LINIE
 48
10.0
100
AcDbLine
 10
86.96590255844048
 20
93.7087781405752
 30
0.0
 11
86.96590255844048
 21
94.08591154581978
 31
0.0
  0
LINE
  5
6EE
330
75
100
AcDbEntity
  8
0
100
AcDbLine
 10
71.96590255844049
 20
100.74708019924
 30
0.0
 11
71.96590255844049
 21
113.74708019924
 31
0.0
  0
LINE
  5
6EF
330
75
100
AcDbEntity
  8
0
100
AcDbLine
 10
61.9659025584405
 20
106.381165883433
 30
0.0
 11
61.9659025584405
 21
109.7425582201605
 31
0.0
  0
LINE
  5
6F0
330
75
100
AcDbEntity
  8
0
100
AcDbLine
 10
61.9659025584405
 20
104.74708019924
 30
0.0
 11
61.9659025584405
 21
106.1048663478169
 31
0.0
  0
LINE
  5
6F1
330
75
100
AcDbEntity
  8
0
100
AcDbLine
 10
75.96590255844049
 20
96.74708019924
 30
0.0
 11
75.96590255844049
 21
117.74708019924
 31
0.0
  0
LINE
  5
6F2
330
75
100
AcDbEntity
  8
0
100
AcDbLine
 10
91.46590255844047
 20
92.49708019924
 30
0.0
 11
91.46590255844047
 21
121.99708019924
 31
0.0
  0
LINE
  5
6F3
330
75
100
AcDbEntity
  8
0
100
AcDbLine
 10
96.46590255844047
 20
92.49708019924
 30
0.0
 11
96.46590255844047
 21
121.99708019924
 31
0.0
  0
LINE
  5
6F4
330
75
100
AcDbEntity
  8
0
100
AcDbLine
 10
96.9659025584405
 20
92.99708019924
 30
0.0
 11
96.9659025584405
 21
121.49708019924
 31
0.0
  0
LINE
  5
6F5
330
75
100
AcDbEntity
  8
0
100
AcDbLine
 10
103.9659025584404
 20
92.99708019924
 30
0.0
 11
103.9659025584404
 21
121.49708019924
 31
0.0
  0
LINE
  5
6F6
330
75
100
AcDbEntity
  8
0
100
AcDbLine
 10
104.4659025584405
 20
92.49708019924
 30
0.0
 11
104.4659025584405
 21
121.99708019924
 31
0.0
  0
LINE
  5
6F7
330
75
100
AcDbEntity
  8
0
100
AcDbLine
 10
109.4659025584405
 20
92.49708019924002
 30
0.0
 11
109.4659025584405
 21
121.99708019924
 31
0.0
  0
LINE
  5
6F8
330
75
100
AcDbEntity
  8
0
100
AcDbLine
 10
109.9659025584405
 20
92.99708019923995
 30
0.0
 11
109.9659025584405
 21
121.4970801992401
 31
0.0
  0
LINE
  5
6F9
330
75
100
AcDbEntity
  8
0
100
AcDbLine
 10
112.4659025584405
 20
93.99708019923997
 30
0.0
 11
112.4659025584405
 21
120.4970801992401
 31
0.0
  0
LINE
  5
6FA
330
75
100
AcDbEntity
  8
0
100
AcDbLine
 10
114.9659025584405
 20
97.53850155547731
 30
0.0
 11
114.9659025584405
 21
116.9556588430027
 31
0.0
  0
LINE
  5
6FB
330
75
100
AcDbEntity
  8
0
100
AcDbLine
 10
89.46590255844048
 20
121.49708019924
 30
0.0
 11
90.96590255844047
 21
121.49708019924
 31
0.0
  0
LINE
  5
6FC
330
75
100
AcDbEntity
  8
0
100
AcDbLine
 10
89.46590255844048
 20
92.99708019924
 30
0.0
 11
90.96590255844047
 21
92.99708019924
 31
0.0
  0
LINE
  5
6FD
330
75
100
AcDbEntity
  8
0
100
AcDbLine
 10
61.9659025584405
 20
104.74708019924
 30
0.0
 11
71.96590255844049
 21
103.5192345902109
 31
0.0
  0
LINE
  5
6FE
330
75
100
AcDbEntity
  8
0
100
AcDbLine
 10
71.96590255844049
 20
113.74708019924
 30
0.0
 11
75.96590255844049
 21
117.74708019924
 31
0.0
  0
LINE
  5
6FF
330
75
100
AcDbEntity
  8
0
100
AcDbLine
 10
71.96590255844049
 20
100.74708019924
 30
0.0
 11
75.96590255844049
 21
96.74708019924
 31
0.0
  0
LINE
  5
700
330
75
100
AcDbEntity
  8
0
100
AcDbLine
 10
75.9659025584405
 20
117.74708019924
 30
0.0
 11
86.96590255844048
 21
117.74708019924
 31
0.0
  0
LINE
  5
701
330
75
100
AcDbEntity
  8
0
100
AcDbLine
 10
75.9659025584405
 20
96.74708019924
 30
0.0
 11
80.96590255844049
 21
96.74708019924
 31
0.0
  0
LINE
  5
702
330
75
100
AcDbEntity
  8
0
100
AcDbLine
 10
84.96590255844049
 20
96.74708019924
 30
0.0
 11
86.96590255844048
 21
96.74708019924
 31
0.0
  0
LINE
  5
703
330
75
100
AcDbEntity
  8
0
100
AcDbLine
 10
90.96590255844047
 20
121.49708019924
 30
0.0
 11
91.46590255844047
 21
121.99708019924
 31
0.0
  0
LINE
  5
704
330
75
100
AcDbEntity
  8
0
100
AcDbLine
 10
90.96590255844047
 20
92.99708019924
 30
0.0
 11
91.46590255844047
 21
92.49708019924002
 31
0.0
  0
LINE
  5
705
330
75
100
AcDbEntity
  8
0
100
AcDbLine
 10
91.46590255844047
 20
121.99708019924
 30
0.0
 11
96.46590255844047
 21
121.99708019924
 31
0.0
  0
LINE
  5
706
330
75
100
AcDbEntity
  8
0
100
AcDbLine
 10
91.46590255844047
 20
92.49708019924002
 30
0.0
 11
96.46590255844047
 21
92.49708019924002
 31
0.0
  0
LINE
  5
707
330
75
100
AcDbEntity
  8
0
100
AcDbLine
 10
96.9659025584405
 20
92.99708019924
 30
0.0
 11
96.46590255844053
 21
92.49708019924002
 31
0.0
  0
LINE
  5
708
330
75
100
AcDbEntity
  8
0
100
AcDbLine
 10
96.9659025584405
 20
121.49708019924
 30
0.0
 11
96.46590255844053
 21
121.99708019924
 31
0.0
  0
LINE
  5
709
330
75
100
AcDbEntity
  8
0
100
AcDbLine
 10
96.9659025584405
 20
121.49708019924
 30
0.0
 11
103.9659025584404
 21
121.49708019924
 31
0.0
  0
LINE
  5
70A
330
75
100
AcDbEntity
  8
0
100
AcDbLine
 10
96.9659025584405
 20
92.99708019924
 30
0.0
 11
103.9659025584404
 21
92.99708019924
 31
0.0
  0
LINE
  5
70B
330
75
100
AcDbEntity
  8
0
100
AcDbLine
 10
103.9659025584404
 20
121.49708019924
 30
0.0
 11
104.4659025584405
 21
121.99708019924
 31
0.0
  0
LINE
  5
70C
330
75
100
AcDbEntity
  8
0
100
AcDbLine
 10
103.9659025584404
 20
92.99708019924
 30
0.0
 11
104.4659025584405
 21
92.49708019924
 31
0.0
  0
LINE
  5
70D
330
75
100
AcDbEntity
  8
0
100
AcDbLine
 10
104.4659025584405
 20
121.99708019924
 30
0.0
 11
109.4659025584405
 21
121.99708019924
 31
0.0
  0
LINE
  5
70E
330
75
100
AcDbEntity
  8
0
100
AcDbLine
 10
104.4659025584405
 20
92.49708019924002
 30
0.0
 11
109.4659025584405
 21
92.49708019924002
 31
0.0
  0
LINE
  5
70F
330
75
100
AcDbEntity
  8
0
100
AcDbLine
 10
109.9659025584405
 20
92.99708019923995
 30
0.0
 11
109.4659025584405
 21
92.49708019924002
 31
0.0
  0
LINE
  5
710
330
75
100
AcDbEntity
  8
0
100
AcDbLine
 10
109.9659025584405
 20
121.4970801992401
 30
0.0
 11
109.4659025584405
 21
121.99708019924
 31
0.0
  0
LINE
  5
711
330
75
100
AcDbEntity
  8
0
100
AcDbLine
 10
109.9659025584405
 20
121.4970801992401
 30
0.0
 11
111.4659025584405
 21
121.4970801992401
 31
0.0
  0
LINE
  5
712
330
75
100
AcDbEntity
  8
0
100
AcDbLine
 10
109.9659025584405
 20
92.99708019923995
 30
0.0
 11
111.4659025584405
 21
92.99708019923995
 31
0.0
  0
ARC
  5
713
330
75
100
AcDbEntity
  8
0
100
AcDbCircle
 10
111.4659025584405
 20
93.99708019923997
 30
0.0
 40
1.0
100
AcDbArc
 50
270.0
 51
0.0
  0
ARC
  5
714
330
75
100
AcDbEntity
  8
0
100
AcDbCircle
 10
111.4659025584405
 20
120.4970801992401
 30
0.0
 40
1.0
100
AcDbArc
 50
0.0
 51
90.0
  0
LINE
  5
715
330
75
100
AcDbEntity
  8
0
100
AcDbLine
 10
114.9366132365591
 20
97.46779087735866
 30
0.0
 11
112.4659025584405
 21
94.99708019924
 31
0.0
  0
LINE
  5
716
330
75
100
AcDbEntity
  8
0
100
AcDbLine
 10
114.9366132365591
 20
117.0263695211213
 30
0.0
 11
112.4659025584405
 21
119.49708019924
 31
0.0
  0
ARC
  5
717
330
75
100
AcDbEntity
  8
0
100
AcDbCircle
 10
114.8659025584405
 20
97.53850155547731
 30
0.0
 40
0.0999999999999268
100
AcDbArc
 50
315.0000000000072
 51
0.0
  0
ARC
  5
718
330
75
100
AcDbEntity
  8
0
100
AcDbCircle
 10
114.8659025584405
 20
116.9556588430027
 30
0.0
 40
0.0999999999999268
100
AcDbArc
 50
0.0
 51
44.9999999999928
  0
ELLIPSE
  5
719
330
75
100
AcDbEntity
  8
LINIE
 48
10.0
100
AcDbEllipse
 10
91.84528780001228
 20
107.24708019924
 30
0.0
 11
-80.81576592955244
 21
-0.0000000000000068
 31
0.0
210
0.0
220
0.0
230
1.0
 40
0.1763269807084649
 41
1.512862038268525
 42
1.536234788579607
  0
POLYLINE
  5
71A
330
75
100
AcDbEntity
  8
LINIE
 48
10.0
100
AcDb2dPolyline
 66
     1
 10
0.0
 20
0.0
 30
0.0
 70
   128
  0
VERTEX
  5
71B
330
71A
100
AcDbEntity
  8
LINIE
 48
10.0
100
AcDbVertex
100
AcDb2dVertex
 10
89.05272554504326
 20
93.00558983516527
 30
0.0
  0
VERTEX
  5
71C
330
71A
100
AcDbEntity
  8
LINIE
 48
10.0
100
AcDbVertex
100
AcDb2dVertex
 10
89.08134054290703
 20
93.00538598728016
 30
0.0
  0
VERTEX
  5
71E
330
71A
100
AcDbEntity
  8
LINIE
 48
10.0
100
AcDbVertex
100
AcDb2dVertex
 10
89.10974573242119
 20
93.00512730312185
 30
0.0
  0
VERTEX
  5
71F
330
71A
100
AcDbEntity
  8
LINIE
 48
10.0
100
AcDbVertex
100
AcDb2dVertex
 10
89.13776468383721
 20
93.00481735896902
 30
0.0
  0
VERTEX
  5
720
330
71A
100
AcDbEntity
  8
LINIE
 48
10.0
100
AcDbVertex
100
AcDb2dVertex
 10
89.16521381484917
 20
93.00445973110036
 30
0.0
  0
VERTEX
  5
721
330
71A
100
AcDbEntity
  8
LINIE
 48
10.0
100
AcDbVertex
100
AcDb2dVertex
 10
89.1919286166375
 20
93.00406037998035
 30
0.0
  0
VERTEX
  5
722
330
71A
100
AcDbEntity
  8
LINIE
 48
10.0
100
AcDbVertex
100
AcDb2dVertex
 10
89.2177755747979
 20
93.00362526607351
 30
0.0
  0
VERTEX
  5
723
330
71A
100
AcDbEntity
  8
LINIE
 48
10.0
100
AcDbVertex
100
AcDb2dVertex
 10
89.24263309585503
 20
93.00316273403005
 30
0.0
  0
VERTEX
  5
724
330
71A
100
AcDbEntity
  8
LINIE
 48
10.0
100
AcDbVertex
100
AcDb2dVertex
 10
89.26637243377617
 20
93.00268232059314
 30
0.0
  0
VERTEX
  5
725
330
71A
100
AcDbEntity
  8
LINIE
 48
10.0
100
AcDbVertex
100
AcDb2dVertex
 10
89.2888696109002
 20
93.00219117832019
 30
0.0
  0
VERTEX
  5
726
330
71A
100
AcDbEntity
  8
LINIE
 48
10.0
100
AcDbVertex
100
AcDb2dVertex
 10
89.31000064956597
 20
93.00169765186147
 30
0.0
  0
VERTEX
  5
727
330
71A
100
AcDbEntity
  8
LINIE
 48
10.0
100
AcDbVertex
100
AcDb2dVertex
 10
89.32974647628716
 20
93.00120770168142
 30
0.0
  0
VERTEX
  5
728
330
71A
100
AcDbEntity
  8
LINIE
 48
10.0
100
AcDbVertex
100
AcDb2dVertex
 10
89.34856008636407
 20
93.00071417522268
 30
0.0
  0
VERTEX
  5
729
330
71A
100
AcDbEntity
  8
LINIE
 48
10.0
100
AcDbVertex
100
AcDb2dVertex
 10
89.36638664352349
 20
93.00022303294971
 30
0.0
  0
VERTEX
  5
72A
330
71A
100
AcDbEntity
  8
LINIE
 48
10.0
100
AcDbVertex
100
AcDb2dVertex
 10
89.38309501754693
 20
92.99974381160572
 30
0.0
  0
VERTEX
  5
72B
330
71A
100
AcDbEntity
  8
LINIE
 48
10.0
100
AcDbVertex
100
AcDb2dVertex
 10
89.39854454147271
 20
92.99928366374807
 30
0.0
  0
VERTEX
  5
72C
330
71A
100
AcDbEntity
  8
LINIE
 48
10.0
100
AcDbVertex
100
AcDb2dVertex
 10
89.41259931671075
 20
92.998850934027
 30
0.0
  0
VERTEX
  5
72D
330
71A
100
AcDbEntity
  8
LINIE
 48
10.0
100
AcDbVertex
100
AcDb2dVertex
 10
89.42512344467095
 20
92.9984527749999
 30
0.0
  0
VERTEX
  5
72E
330
71A
100
AcDbEntity
  8
LINIE
 48
10.0
100
AcDbVertex
100
AcDb2dVertex
 10
89.4359905635064
 20
92.99809872340992
 30
0.0
  0
VERTEX
  5
72F
330
71A
100
AcDbEntity
  8
LINIE
 48
10.0
100
AcDbVertex
100
AcDb2dVertex
 10
89.44516491043023
 20
92.99779473972158
 30
0.0
  0
VERTEX
  5
730
330
71A
100
AcDbEntity
  8
LINIE
 48
10.0
100
AcDbVertex
100
AcDb2dVertex
 10
89.45265125381402
 20
92.99754201602771
 30
0.0
  0
VERTEX
  5
731
330
71A
100
AcDbEntity
  8
LINIE
 48
10.0
100
AcDbVertex
100
AcDb2dVertex
 10
89.45846151458672
 20
92.99734293651418
 30
0.0
  0
VERTEX
  5
732
330
71A
100
AcDbEntity
  8
LINIE
 48
10.0
100
AcDbVertex
100
AcDb2dVertex
 10
89.46260046111992
 20
92.99719750118091
 30
0.0
  0
VERTEX
  5
733
330
71A
100
AcDbEntity
  8
LINIE
 48
10.0
100
AcDbVertex
100
AcDb2dVertex
 10
89.46507763015679
 20
92.99711047839956
 30
0.0
  0
VERTEX
  5
734
330
71A
100
AcDbEntity
  8
LINIE
 48
10.0
100
AcDbVertex
100
AcDb2dVertex
 10
89.46590255844048
 20
92.99708067607715
 30
0.0
  0
SEQEND
  5
71D
330
71A
100
AcDbEntity
  8
LINIE
 48
10.0
  0
POLYLINE
  5
735
330
75
100
AcDbEntity
  8
LINIE
 48
10.0
100
AcDb2dPolyline
 66
     1
 10
0.0
 20
0.0
 30
0.0
 70
   128
  0
VERTEX
  5
736
330
735
100
AcDbEntity
  8
LINIE
 48
10.0
100
AcDbVertex
100
AcDb2dVertex
 10
86.96590255844048
 20
93.22344719600515
 30
0.0
  0
VERTEX
  5
737
330
735
100
AcDbEntity
  8
LINIE
 48
10.0
100
AcDbVertex
100
AcDb2dVertex
 10
86.9741780673211
 20
93.21506678294971
 30
0.0
  0
VERTEX
  5
739
330
735
100
AcDbEntity
  8
LINIE
 48
10.0
100
AcDbVertex
100
AcDb2dVertex
 10
86.98246072875909
 20
93.20668040942983
 30
0.0
  0
VERTEX
  5
73A
330
735
100
AcDbEntity
  8
LINIE
 48
10.0
100
AcDbVertex
100
AcDb2dVertex
 10
86.99074577438286
 20
93.19829045963123
 30
0.0
  0
VERTEX
  5
73B
330
735
100
AcDbEntity
  8
LINIE
 48
10.0
100
AcDbVertex
100
AcDb2dVertex
 10
86.99903797256402
 20
93.1898945493682
 30
0.0
  0
VERTEX
  5
73C
330
735
100
AcDbEntity
  8
LINIE
 48
10.0
100
AcDbVertex
100
AcDb2dVertex
 10
87.00733255493096
 20
93.18149387073354
 30
0.0
  0
VERTEX
  5
73D
330
735
100
AcDbEntity
  8
LINIE
 48
10.0
100
AcDbVertex
100
AcDb2dVertex
 10
87.01563428985528
 20
93.17308961582019
 30
0.0
  0
VERTEX
  5
73E
330
735
100
AcDbEntity
  8
LINIE
 48
10.0
100
AcDbVertex
100
AcDb2dVertex
 10
87.02394079315117
 20
93.1646794004424
 30
0.0
  0
VERTEX
  5
73F
330
735
100
AcDbEntity
  8
LINIE
 48
10.0
100
AcDbVertex
100
AcDb2dVertex
 10
87.03225206481866
 20
93.15626560878591
 30
0.0
  0
VERTEX
  5
740
330
735
100
AcDbEntity
  8
LINIE
 48
10.0
100
AcDbVertex
100
AcDb2dVertex
 10
87.04056572067193
 20
93.14784704875783
 30
0.0
  0
VERTEX
  5
741
330
735
100
AcDbEntity
  8
LINIE
 48
10.0
100
AcDbVertex
100
AcDb2dVertex
 10
87.04888652908257
 20
93.13942252826528
 30
0.0
  0
VERTEX
  5
742
330
735
100
AcDbEntity
  8
LINIE
 48
10.0
100
AcDbVertex
100
AcDb2dVertex
 10
87.05721449005059
 20
93.13099443149404
 30
0.0
  0
VERTEX
  5
743
330
735
100
AcDbEntity
  8
LINIE
 48
10.0
100
AcDbVertex
100
AcDb2dVertex
 10
87.0655448352044
 20
93.12256037425829
 30
0.0
  0
VERTEX
  5
744
330
735
100
AcDbEntity
  8
LINIE
 48
10.0
100
AcDbVertex
100
AcDb2dVertex
 10
87.07387994872979
 20
93.11412274074392
 30
0.0
  0
VERTEX
  5
745
330
735
100
AcDbEntity
  8
LINIE
 48
10.0
100
AcDbVertex
100
AcDb2dVertex
 10
87.08221983062676
 20
93.10567914676504
 30
0.0
  0
VERTEX
  5
746
330
735
100
AcDbEntity
  8
LINIE
 48
10.0
100
AcDbVertex
100
AcDb2dVertex
 10
87.09056686508111
 20
93.09723197650749
 30
0.0
  0
VERTEX
  5
747
330
735
100
AcDbEntity
  8
LINIE
 48
10.0
100
AcDbVertex
100
AcDb2dVertex
 10
87.09891628372124
 20
93.0887800378783
 30
0.0
  0
VERTEX
  5
748
330
735
100
AcDbEntity
  8
LINIE
 48
10.0
100
AcDbVertex
100
AcDb2dVertex
 10
87.10727285491875
 20
93.08032213878469
 30
0.0
  0
VERTEX
  5
749
330
735
100
AcDbEntity
  8
LINIE
 48
10.0
100
AcDbVertex
100
AcDb2dVertex
 10
87.11563419448784
 20
93.07186066341238
 30
0.0
  0
VERTEX
  5
74A
330
735
100
AcDbEntity
  8
LINIE
 48
10.0
100
AcDbVertex
100
AcDb2dVertex
 10
87.12399791824273
 20
93.06339322757557
 30
0.0
  0
VERTEX
  5
74B
330
735
100
AcDbEntity
  8
LINIE
 48
10.0
100
AcDbVertex
100
AcDb2dVertex
 10
87.13236879455498
 20
93.05492221546007
 30
0.0
  0
VERTEX
  5
74C
330
735
100
AcDbEntity
  8
LINIE
 48
10.0
100
AcDbVertex
100
AcDb2dVertex
 10
87.14074443923882
 20
93.04644524288015
 30
0.0
  0
VERTEX
  5
74D
330
735
100
AcDbEntity
  8
LINIE
 48
10.0
100
AcDbVertex
100
AcDb2dVertex
 10
87.14912723648003
 20
93.03796469402151
 30
0.0
  0
VERTEX
  5
74E
330
735
100
AcDbEntity
  8
LINIE
 48
10.0
100
AcDbVertex
100
AcDb2dVertex
 10
87.15751241790703
 20
93.0294781846984
 30
0.0
  0
VERTEX
  5
74F
330
735
100
AcDbEntity
  8
LINIE
 48
10.0
100
AcDbVertex
100
AcDb2dVertex
 10
87.16590236770562
 20
93.02098809909658
 30
0.0
  0
SEQEND
  5
738
330
735
100
AcDbEntity
  8
LINIE
 48
10.0
  0
LINE
  5
750
330
75
100
AcDbEntity
  8
0
100
AcDbLine
 10
61.9659025584405
 20
106.1048663478169
 30
0.0
 11
61.9659025584405
 21
106.381165883433
 31
0.0
  0
POLYLINE
  5
751
330
75
100
AcDbEntity
  8
0
100
AcDb2dPolyline
 66
     1
 10
0.0
 20
0.0
 30
0.0
 70
   128
  0
VERTEX
  5
752
330
751
100
AcDbEntity
  8
0
100
AcDbVertex
100
AcDb2dVertex
 10
71.96590255844049
 20
105.4904468281253
 30
0.0
  0
VERTEX
  5
753
330
751
100
AcDbEntity
  8
0
100
AcDbVertex
100
AcDb2dVertex
 10
71.46160256015709
 20
105.5214241070731
 30
0.0
  0
VERTEX
  5
755
330
751
100
AcDbEntity
  8
0
100
AcDbVertex
100
AcDb2dVertex
 10
70.96643995391779
 20
105.5518405063136
 30
0.0
  0
VERTEX
  5
756
330
751
100
AcDbEntity
  8
0
100
AcDbVertex
100
AcDb2dVertex
 10
70.48016857253961
 20
105.5817115230544
 30
0.0
  0
VERTEX
  5
757
330
751
100
AcDbEntity
  8
0
100
AcDbVertex
100
AcDb2dVertex
 10
70.00255178558282
 20
105.6110513133986
 30
0.0
  0
VERTEX
  5
758
330
751
100
AcDbEntity
  8
0
100
AcDbVertex
100
AcDb2dVertex
 10
69.53336011516504
 20
105.6398741824611
 30
0.0
  0
VERTEX
  5
759
330
751
100
AcDbEntity
  8
0
100
AcDbVertex
100
AcDb2dVertex
 10
69.07237362014703
 20
105.6681936902983
 30
0.0
  0
VERTEX
  5
75A
330
751
100
AcDbEntity
  8
0
100
AcDbVertex
100
AcDb2dVertex
 10
68.61937891590051
 20
105.6960228009207
 30
0.0
  0
VERTEX
  5
75B
330
751
100
AcDbEntity
  8
0
100
AcDbVertex
100
AcDb2dVertex
 10
68.174170366401
 20
105.7233741803153
 30
0.0
  0
VERTEX
  5
75C
330
751
100
AcDbEntity
  8
0
100
AcDbVertex
100
AcDb2dVertex
 10
67.73654889213495
 20
105.7502601964457
 30
0.0
  0
VERTEX
  5
75D
330
751
100
AcDbEntity
  8
0
100
AcDbVertex
100
AcDb2dVertex
 10
67.30632256614618
 20
105.7766924722178
 30
0.0
  0
VERTEX
  5
75E
330
751
100
AcDbEntity
  8
0
100
AcDbVertex
100
AcDb2dVertex
 10
66.88330542194299
 20
105.8026823325141
 30
0.0
  0
VERTEX
  5
75F
330
751
100
AcDbEntity
  8
0
100
AcDbVertex
100
AcDb2dVertex
 10
66.46731834756784
 20
105.828241102217
 30
0.0
  0
VERTEX
  5
760
330
751
100
AcDbEntity
  8
0
100
AcDbVertex
100
AcDb2dVertex
 10
66.05818789350442
 20
105.8533792121394
 30
0.0
  0
VERTEX
  5
761
330
751
100
AcDbEntity
  8
0
100
AcDbVertex
100
AcDb2dVertex
 10
65.65574597465448
 20
105.8781070930941
 30
0.0
  0
VERTEX
  5
762
330
751
100
AcDbEntity
  8
0
100
AcDbVertex
100
AcDb2dVertex
 10
65.25983046638422
 20
105.9024345798476
 30
0.0
  0
VERTEX
  5
763
330
751
100
AcDbEntity
  8
0
100
AcDbVertex
100
AcDb2dVertex
 10
64.87028401243143
 20
105.9263715071662
 30
0.0
  0
VERTEX
  5
764
330
751
100
AcDbEntity
  8
0
100
AcDbVertex
100
AcDb2dVertex
 10
64.48695432292871
 20
105.9499269647582
 30
0.0
  0
VERTEX
  5
765
330
751
100
AcDbEntity
  8
0
100
AcDbVertex
100
AcDb2dVertex
 10
64.10969417440347
 20
105.9731103403552
 30
0.0
  0
VERTEX
  5
766
330
751
100
AcDbEntity
  8
0
100
AcDbVertex
100
AcDb2dVertex
 10
63.73836081373148
 20
105.9959302766307
 30
0.0
  0
VERTEX
  5
767
330
751
100
AcDbEntity
  8
0
100
AcDbVertex
100
AcDb2dVertex
 10
63.37281595813685
 20
106.0183951927407
 30
0.0
  0
VERTEX
  5
768
330
751
100
AcDbEntity
  8
0
100
AcDbVertex
100
AcDb2dVertex
 10
63.01292564618043
 20
106.0405134333356
 30
0.0
  0
VERTEX
  5
769
330
751
100
AcDbEntity
  8
0
100
AcDbVertex
100
AcDb2dVertex
 10
62.65855993973666
 20
106.0622928960307
 30
0.0
  0
VERTEX
  5
76A
330
751
100
AcDbEntity
  8
0
100
AcDbVertex
100
AcDb2dVertex
 10
62.30959292399338
 20
106.0837414039357
 30
0.0
  0
VERTEX
  5
76B
330
751
100
AcDbEntity
  8
0
100
AcDbVertex
100
AcDb2dVertex
 10
61.9659025584405
 20
106.1048663331254
 30
0.0
  0
SEQEND
  5
754
330
751
100
AcDbEntity
  8
0
  0
LINE
  5
76C
330
75
100
AcDbEntity
  8
0
100
AcDbLine
 10
61.9659025584405
 20
109.7425582201605
 30
0.0
 11
61.9659025584405
 21
109.7425940280256
 31
0.0
  0
POLYLINE
  5
76D
330
75
100
AcDbEntity
  8
0
100
AcDb2dPolyline
 66
     1
 10
0.0
 20
0.0
 30
0.0
 70
   128
  0
VERTEX
  5
76E
330
76D
100
AcDbEntity
  8
0
100
AcDbVertex
100
AcDb2dVertex
 10
71.96590255844049
 20
110.9718948526366
 30
0.0
  0
VERTEX
  5
76F
330
76D
100
AcDbEntity
  8
0
100
AcDbVertex
100
AcDb2dVertex
 10
71.46152984249048
 20
110.9099143667205
 30
0.0
  0
VERTEX
  5
771
330
76D
100
AcDbEntity
  8
0
100
AcDbVertex
100
AcDb2dVertex
 10
70.9663028632348
 20
110.8490559382422
 30
0.0
  0
VERTEX
  5
772
330
76D
100
AcDbEntity
  8
0
100
AcDbVertex
100
AcDb2dVertex
 10
70.47997426139764
 20
110.7892894668563
 30
0.0
  0
VERTEX
  5
773
330
76D
100
AcDbEntity
  8
0
100
AcDbVertex
100
AcDb2dVertex
 10
70.00230740653925
 20
110.7305857462867
 30
0.0
  0
VERTEX
  5
774
330
76D
100
AcDbEntity
  8
0
100
AcDbVertex
100
AcDb2dVertex
 10
69.53307341682367
 20
110.6729167623504
 30
0.0
  0
VERTEX
  5
775
330
76D
100
AcDbEntity
  8
0
100
AcDbVertex
100
AcDb2dVertex
 10
69.0720511590188
 20
110.6162547988875
 30
0.0
  0
VERTEX
  5
776
330
76D
100
AcDbEntity
  8
0
100
AcDbVertex
100
AcDb2dVertex
 10
68.61902665244989
 20
110.5605742259009
 30
0.0
  0
VERTEX
  5
777
330
76D
100
AcDbEntity
  8
0
100
AcDbVertex
100
AcDb2dVertex
 10
68.17379485713892
 20
110.5058494133933
 30
0.0
  0
VERTEX
  5
778
330
76D
100
AcDbEntity
  8
0
100
AcDbVertex
100
AcDb2dVertex
 10
67.73615609752588
 20
110.4520562214835
 30
0.0
  0
VERTEX
  5
779
330
76D
100
AcDbEntity
  8
0
100
AcDbVertex
100
AcDb2dVertex
 10
67.30591904270105
 20
110.3991705102904
 30
0.0
  0
VERTEX
  5
77A
330
76D
100
AcDbEntity
  8
0
100
AcDbVertex
100
AcDb2dVertex
 10
66.88289683210306
 20
110.3471699280722
 30
0.0
  0
VERTEX
  5
77B
330
76D
100
AcDbEntity
  8
0
100
AcDbVertex
100
AcDb2dVertex
 10
66.46691035377435
 20
110.2960321230872
 30
0.0
  0
VERTEX
  5
77C
330
76D
100
AcDbEntity
  8
0
100
AcDbVertex
100
AcDb2dVertex
 10
66.05778615819864
 20
110.2457362337096
 30
0.0
  0
VERTEX
  5
77D
330
76D
100
AcDbEntity
  8
0
100
AcDbVertex
100
AcDb2dVertex
 10
65.65535586225442
 20
110.1962608022673
 30
0.0
  0
VERTEX
  5
77E
330
76D
100
AcDbEntity
  8
0
100
AcDbVertex
100
AcDb2dVertex
 10
65.25945734130792
 20
110.1475864572509
 30
0.0
  0
VERTEX
  5
77F
330
76D
100
AcDbEntity
  8
0
100
AcDbVertex
100
AcDb2dVertex
 10
64.8699329410737
 20
110.0996935291274
 30
0.0
  0
VERTEX
  5
780
330
76D
100
AcDbEntity
  8
0
100
AcDbVertex
100
AcDb2dVertex
 10
64.48663037168436
 20
110.052563540457
 30
0.0
  0
VERTEX
  5
781
330
76D
100
AcDbEntity
  8
0
100
AcDbVertex
100
AcDb2dVertex
 10
64.10940211164407
 20
110.0061783118231
 30
0.0
  0
VERTEX
  5
782
330
76D
100
AcDbEntity
  8
0
100
AcDbVertex
100
AcDb2dVertex
 10
63.73810570585185
 20
109.9605199618323
 30
0.0
  0
VERTEX
  5
783
330
76D
100
AcDbEntity
  8
0
100
AcDbVertex
100
AcDb2dVertex
 10
63.37260272252017
 20
109.9155720992072
 30
0.0
  0
VERTEX
  5
784
330
76D
100
AcDbEntity
  8
0
100
AcDbVertex
100
AcDb2dVertex
 10
63.01275875317505
 20
109.8713174386008
 30
0.0
  0
VERTEX
  5
785
330
76D
100
AcDbEntity
  8
0
100
AcDbVertex
100
AcDb2dVertex
 10
62.65844415771418
 20
109.8277407808287
 30
0.0
  0
VERTEX
  5
786
330
76D
100
AcDbEntity
  8
0
100
AcDbVertex
100
AcDb2dVertex
 10
62.30953279780798
 20
109.7848260326369
 30
0.0
  0
VERTEX
  5
787
330
76D
100
AcDbEntity
  8
0
100
AcDbVertex
100
AcDb2dVertex
 10
61.9659025584405
 20
109.7425582928641
 30
0.0
  0
SEQEND
  5
770
330
76D
100
AcDbEntity
  8
0
  0
POLYLINE
  5
788
330
75
100
AcDbEntity
  8
0
100
AcDb2dPolyline
 66
     1
 10
0.0
 20
0.0
 30
0.0
 70
   128
  0
VERTEX
  5
789
330
788
100
AcDbEntity
  8
0
100
AcDbVertex
100
AcDb2dVertex
 10
61.9659025584405
 20
106.3811658991559
 30
0.0
  0
VERTEX
  5
78A
330
788
100
AcDbEntity
  8
0
100
AcDbVertex
100
AcDb2dVertex
 10
62.30826198952847
 20
106.3598457647546
 30
0.0
  0
VERTEX
  5
78C
330
788
100
AcDbEntity
  8
0
100
AcDbVertex
100
AcDb2dVertex
 10
62.65599790858678
 20
106.3382011575682
 30
0.0
  0
VERTEX
  5
78D
330
788
100
AcDbEntity
  8
0
100
AcDbVertex
100
AcDb2dVertex
 10
63.00923358547144
 20
106.3162241799815
 30
0.0
  0
VERTEX
  5
78E
330
788
100
AcDbEntity
  8
0
100
AcDbVertex
100
AcDb2dVertex
 10
63.36809646236353
 20
106.2939070088847
 30
0.0
  0
VERTEX
  5
78F
330
788
100
AcDbEntity
  8
0
100
AcDbVertex
100
AcDb2dVertex
 10
63.7327180420106
 20
106.2712413741334
 30
0.0
  0
VERTEX
  5
790
330
788
100
AcDbEntity
  8
0
100
AcDbVertex
100
AcDb2dVertex
 10
64.10323392497949
 20
106.2482188565714
 30
0.0
  0
VERTEX
  5
791
330
788
100
AcDbEntity
  8
0
100
AcDbVertex
100
AcDb2dVertex
 10
64.47978418218546
 20
106.2248306645138
 30
0.0
  0
VERTEX
  5
792
330
788
100
AcDbEntity
  8
0
100
AcDbVertex
100
AcDb2dVertex
 10
64.86251395093851
 20
106.2010678572638
 30
0.0
  0
VERTEX
  5
793
330
788
100
AcDbEntity
  8
0
100
AcDbVertex
100
AcDb2dVertex
 10
65.25157254087381
 20
106.1769210470898
 30
0.0
  0
VERTEX
  5
794
330
788
100
AcDbEntity
  8
0
100
AcDbVertex
100
AcDb2dVertex
 10
65.64711492406778
 20
106.1523806227429
 30
0.0
  0
VERTEX
  5
795
330
788
100
AcDbEntity
  8
0
100
AcDbVertex
100
AcDb2dVertex
 10
66.04930024492197
 20
106.1274366749509
 30
0.0
  0
VERTEX
  5
796
330
788
100
AcDbEntity
  8
0
100
AcDbVertex
100
AcDb2dVertex
 10
66.45829420434885
 20
106.1020790709241
 30
0.0
  0
VERTEX
  5
797
330
788
100
AcDbEntity
  8
0
100
AcDbVertex
100
AcDb2dVertex
 10
66.87426727163248
 20
106.0762970818265
 30
0.0
  0
VERTEX
  5
798
330
788
100
AcDbEntity
  8
0
100
AcDbVertex
100
AcDb2dVertex
 10
67.29739677059106
 20
106.0500797553046
 30
0.0
  0
VERTEX
  5
799
330
788
100
AcDbEntity
  8
0
100
AcDbVertex
100
AcDb2dVertex
 10
67.72786509143762
 20
106.0234158409817
 30
0.0
  0
VERTEX
  5
79A
330
788
100
AcDbEntity
  8
0
100
AcDbVertex
100
AcDb2dVertex
 10
68.16586147891931
 20
105.9962935669406
 30
0.0
  0
VERTEX
  5
79B
330
788
100
AcDbEntity
  8
0
100
AcDbVertex
100
AcDb2dVertex
 10
68.61158203231744
 20
105.9687007887347
 30
0.0
  0
VERTEX
  5
79C
330
788
100
AcDbEntity
  8
0
100
AcDbVertex
100
AcDb2dVertex
 10
69.06522940742426
 20
105.9406250638945
 30
0.0
  0
VERTEX
  5
79D
330
788
100
AcDbEntity
  8
0
100
AcDbVertex
100
AcDb2dVertex
 10
69.5270140086358
 20
105.9120534284098
 30
0.0
  0
VERTEX
  5
79E
330
788
100
AcDbEntity
  8
0
100
AcDbVertex
100
AcDb2dVertex
 10
69.99715398895197
 20
105.8829723222239
 30
0.0
  0
VERTEX
  5
79F
330
788
100
AcDbEntity
  8
0
100
AcDbVertex
100
AcDb2dVertex
 10
70.47587405788354
 20
105.8533677382453
 30
0.0
  0
VERTEX
  5
7A0
330
788
100
AcDbEntity
  8
0
100
AcDbVertex
100
AcDb2dVertex
 10
70.96340905773096
 20
105.8232253713591
 30
0.0
  0
VERTEX
  5
7A1
330
788
100
AcDbEntity
  8
0
100
AcDbVertex
100
AcDb2dVertex
 10
71.46000098335199
 20
105.7925301713927
 30
0.0
  0
VERTEX
  5
7A2
330
788
100
AcDbEntity
  8
0
100
AcDbVertex
100
AcDb2dVertex
 10
71.96590255844049
 20
105.7612666411383
 30
0.0
  0
SEQEND
  5
78B
330
788
100
AcDbEntity
  8
0
  0
POLYLINE
  5
7A3
330
75
100
AcDbEntity
  8
0
100
AcDb2dPolyline
 66
     1
 10
0.0
 20
0.0
 30
0.0
 70
   128
  0
VERTEX
  5
7A4
330
7A3
100
AcDbEntity
  8
0
100
AcDbVertex
100
AcDb2dVertex
 10
61.9659025584405
 20
109.742594055651
 30
0.0
  0
VERTEX
  5
7A5
330
7A3
100
AcDbEntity
  8
0
100
AcDbVertex
100
AcDb2dVertex
 10
62.3095342134183
 20
109.7848611993773
 30
0.0
  0
VERTEX
  5
7A7
330
7A3
100
AcDbEntity
  8
0
100
AcDbVertex
100
AcDb2dVertex
 10
62.6584468399232
 20
109.8277756495459
 30
0.0
  0
VERTEX
  5
7A8
330
7A3
100
AcDbEntity
  8
0
100
AcDbVertex
100
AcDb2dVertex
 10
63.01276270198279
 20
109.8713520092948
 30
0.0
  0
VERTEX
  5
7A9
330
7A3
100
AcDbEntity
  8
0
100
AcDbVertex
100
AcDb2dVertex
 10
63.37260763990336
 20
109.9156060738547
 30
0.0
  0
VERTEX
  5
7AA
330
7A3
100
AcDbEntity
  8
0
100
AcDbVertex
100
AcDb2dVertex
 10
63.73811181532794
 20
109.9605536384566
 30
0.0
  0
VERTEX
  5
7AB
330
7A3
100
AcDbEntity
  8
0
100
AcDbVertex
100
AcDb2dVertex
 10
64.10940911518983
 20
110.006211392401
 30
0.0
  0
VERTEX
  5
7AC
330
7A3
100
AcDbEntity
  8
0
100
AcDbVertex
100
AcDb2dVertex
 10
64.48663782226495
 20
110.0525963230117
 30
0.0
  0
VERTEX
  5
7AD
330
7A3
100
AcDbEntity
  8
0
100
AcDbVertex
100
AcDb2dVertex
 10
64.86994098770074
 20
110.0997260136588
 30
0.0
  0
VERTEX
  5
7AE
330
7A3
100
AcDbEntity
  8
0
100
AcDbVertex
100
AcDb2dVertex
 10
65.25946598398141
 20
110.1476183457358
 30
0.0
  0
VERTEX
  5
7AF
330
7A3
100
AcDbEntity
  8
0
100
AcDbVertex
100
AcDb2dVertex
 10
65.65536510097436
 20
110.1962923927291
 30
0.0
  0
VERTEX
  5
7B0
330
7A3
100
AcDbEntity
  8
0
100
AcDbVertex
100
AcDb2dVertex
 10
66.0577956949418
 20
110.2457669301017
 30
0.0
  0
VERTEX
  5
7B1
330
7A3
100
AcDbEntity
  8
0
100
AcDbVertex
100
AcDb2dVertex
 10
66.46692018854074
 20
110.2960628194793
 30
0.0
  0
VERTEX
  5
7B2
330
7A3
100
AcDbEntity
  8
0
100
AcDbVertex
100
AcDb2dVertex
 10
66.88290636884622
 20
110.3472000284178
 30
0.0
  0
VERTEX
  5
7B3
330
7A3
100
AcDbEntity
  8
0
100
AcDbVertex
100
AcDb2dVertex
 10
67.30592857944421
 20
110.3992000145896
 30
0.0
  0
VERTEX
  5
7B4
330
7A3
100
AcDbEntity
  8
0
100
AcDbVertex
100
AcDb2dVertex
 10
67.73616563426904
 20
110.4520851297362
 30
0.0
  0
VERTEX
  5
7B5
330
7A3
100
AcDbEntity
  8
0
100
AcDbVertex
100
AcDb2dVertex
 10
68.17380379783563
 20
110.5058780236228
 30
0.0
  0
VERTEX
  5
7B6
330
7A3
100
AcDbEntity
  8
0
100
AcDbVertex
100
AcDb2dVertex
 10
68.61903499710016
 20
110.560602240084
 30
0.0
  0
VERTEX
  5
7B7
330
7A3
100
AcDbEntity
  8
0
100
AcDbVertex
100
AcDb2dVertex
 10
69.07205831157617
 20
110.6162822170241
 30
0.0
  0
VERTEX
  5
7B8
330
7A3
100
AcDbEntity
  8
0
100
AcDbVertex
100
AcDb2dVertex
 10
69.53308056938104
 20
110.6729435844405
 30
0.0
  0
VERTEX
  5
7B9
330
7A3
100
AcDbEntity
  8
0
100
AcDbVertex
100
AcDb2dVertex
 10
70.00231336700372
 20
110.7306122703536
 30
0.0
  0
VERTEX
  5
7BA
330
7A3
100
AcDbEntity
  8
0
100
AcDbVertex
100
AcDb2dVertex
 10
70.47997902976923
 20
110.7893153948767
 30
0.0
  0
VERTEX
  5
7BB
330
7A3
100
AcDbEntity
  8
0
100
AcDbVertex
100
AcDb2dVertex
 10
70.96630584346704
 20
110.8490812702163
 30
0.0
  0
VERTEX
  5
7BC
330
7A3
100
AcDbEntity
  8
0
100
AcDbVertex
100
AcDb2dVertex
 10
71.46153163062982
 20
110.9099391026481
 30
0.0
  0
VERTEX
  5
7BD
330
7A3
100
AcDbEntity
  8
0
100
AcDbVertex
100
AcDb2dVertex
 10
71.96590255844049
 20
110.9719186944945
 30
0.0
  0
SEQEND
  5
7A6
330
7A3
100
AcDbEntity
  8
0
  0
LINE
  5
D4A
330
75
100
AcDbEntity
  8
MITTE
 48
0.3
100
AcDbLine
 10
252.9998177532476
 20
107.2470801992399
 30
0.0
 11
59.06136740332197
 21
107.2470801992401
 31
0.0
  0
LINE
  5
D4C
330
75
100
AcDbEntity
  8
MITTE
 48
0.1
100
AcDbLine
 10
119.8504806986406
 20
111.7470801992574
 30
0.0
 11
119.8504806986406
 21
102.7470801992226
 31
0.0
  0
ENDSEC
  0
SECTION
  2
OBJECTS
  0
DICTIONARY
  5
C
330
0
100
AcDbDictionary
281
     1
  3
ACAD_2007HEADERVARS_RT
350
EE6
  3
ACAD_COLOR
350
6B
  3
ACAD_GROUP
350
D
  3
ACAD_LAYOUT
350
6A
  3
ACAD_MATERIAL
350
10
  3
ACAD_MLEADERSTYLE
350
6E
  3
ACAD_MLINESTYLE
350
67
  3
ACAD_PLOTSETTINGS
350
69
  3
ACAD_PLOTSTYLENAME
350
E
  3
ACAD_SCALELIST
350
3A
  3
ACAD_TABLESTYLE
350
6C
  3
ACAD_VISUALSTYLE
350
29
  3
ACDB_RECOMPOSE_DATA
350
D55
  3
AcDbVariableDictionary
350
D4D
  3
AcmDictionary
350
DD5
  3
AMG
350
D7B
  3
AMGSNAPSETTINGS
350
E1A
  0
DICTIONARY
  5
EE6
102
{ACAD_REACTORS
330
C
102
}
330
C
100
AcDbDictionary
281
     1
  3
DIMJOGANG
350
EE7
  0
DICTIONARY
  5
6B
102
{ACAD_REACTORS
330
C
102
}
330
C
100
AcDbDictionary
281
     1
  0
DICTIONARY
  5
D
102
{ACAD_REACTORS
330
C
102
}
330
C
100
AcDbDictionary
281
     1
  0
DICTIONARY
  5
6A
102
{ACAD_REACTORS
330
C
102
}
330
C
100
AcDbDictionary
281
     1
  3
Layout1
350
74
  3
Layout2
350
7C
  3
Model
350
78
  0
DICTIONARY
  5
10
102
{ACAD_REACTORS
330
C
102
}
330
C
100
AcDbDictionary
281
     1
  3
ByBlock
350
19
  3
ByLayer
350
11
  3
Global
350
21
  0
DICTIONARY
  5
6E
102
{ACAD_REACTORS
330
C
102
}
330
C
100
AcDbDictionary
281
     1
  3
Standard
350
6F
  0
DICTIONARY
  5
67
102
{ACAD_REACTORS
330
C
102
}
330
C
100
AcDbDictionary
281
     1
  3
Standard
350
68
  0
DICTIONARY
  5
69
102
{ACAD_REACTORS
330
C
102
}
330
C
100
AcDbDictionary
281
     1
  0
ACDBDICTIONARYWDFLT
  5
E
102
{ACAD_REACTORS
330
C
102
}
330
C
100
AcDbDictionary
281
     1
  3
Normal
350
F
100
AcDbDictionaryWithDefault
340
F
  0
DICTIONARY
  5
3A
102
{ACAD_REACTORS
330
C
102
}
330
C
100
AcDbDictionary
281
     1
  3
A0
350
3B
  3
A1
350
3C
  3
A2
350
3D
  3
A3
350
3E
  3
A4
350
3F
  3
A5
350
40
  3
A6
350
41
  3
A7
350
42
  3
A8
350
43
  3
A9
350
44
  3
B0
350
45
  3
B1
350
46
  3
B2
350
47
  3
B3
350
48
  3
B4
350
49
  3
B5
350
4A
  3
B6
350
4B
  3
B7
350
4C
  3
B8
350
4D
  3
B9
350
4E
  3
C0
350
4F
  3
C1
350
50
  3
C2
350
51
  3
C3
350
52
  3
C4
350
53
  3
C5
350
54
  3
C6
350
55
  3
C7
350
56
  3
C8
350
57
  3
C9
350
58
  3
D0
350
59
  3
D1
350
5A
  3
D2
350
5B
  0
DICTIONARY
  5
6C
102
{ACAD_REACTORS
330
C
102
}
330
C
100
AcDbDictionary
281
     1
  3
Standard
350
6D
  0
DICTIONARY
  5
29
102
{ACAD_REACTORS
330
C
102
}
330
C
100
AcDbDictionary
281
     1
  3
2dWireframe
350
2F
  3
3D Hidden
350
31
  3
3dWireframe
350
30
  3
Basic
350
2E
  3
Brighten
350
35
  3
ColorChange
350
39
  3
Conceptual
350
32
  3
Dim
350
34
  3
Facepattern
350
38
  3
Flat
350
2A
  3
FlatWithEdges
350
2B
  3
Gouraud
350
2C
  3
GouraudWithEdges
350
2D
  3
Linepattern
350
37
  3
Realistic
350
33
  3
Thicken
350
36
  0
XRECORD
  5
D55
102
{ACAD_REACTORS
330
C
102
}
330
C
100
AcDbXrecord
280
     1
 90
        1
330
6D
  0
DICTIONARY
  5
D4D
102
{ACAD_REACTORS
330
C
102
}
330
C
100
AcDbDictionary
281
     1
  3
CANNOSCALE
350
D51
  3
CMLEADERSTYLE
350
D4F
  3
CTABLESTYLE
350
D4E
  3
LIGHTINGUNITS
350
D52
  3
MSLTSCALE
350
D50
  0
DICTIONARY
  5
DD5
102
{ACAD_REACTORS
330
C
102
}
330
C
100
AcDbDictionary
281
     1
  3
AcmStdDictionary
350
DE0
  3
AMDTSECTSYM_ARROWCOLOR
350
E04
  0
DICTIONARY
  5
D7B
102
{ACAD_REACTORS
330
C
102
}
330
C
100
AcDbDictionary
281
     1
  0
DICTIONARY
  5
E1A
102
{ACAD_REACTORS
330
C
102
}
330
C
100
AcDbDictionary
281
     1
  0
XRECORD
  5
EE7
102
{ACAD_REACTORS
330
EE6
102
}
330
EE6
100
AcDbXrecord
280
     1
 40
1.570796326794896
  0
LAYOUT
  5
74
102
{ACAD_REACTORS
330
6A
102
}
330
6A
100
AcDbPlotSettings
  1

  2

  4

  6

 40
0.0
 41
0.0
 42
0.0
 43
0.0
 44
0.0
 45
0.0
 46
0.0
 47
0.0
 48
0.0
 49
0.0
140
0.0
141
0.0
142
1.0
143
1.0
 70
   688
 72
     0
 73
     0
 74
     5
  7

 75
    16
147
1.0
 76
     0
 77
     2
 78
   300
148
0.0
149
0.0
100
AcDbLayout
  1
Layout1
 70
     1
 71
     1
 10
0.0
 20
0.0
 11
297.0
 21
210.0
 12
0.0
 22
0.0
 32
0.0
 14
0.0
 24
0.0
 34
0.0
 15
297.0
 25
210.0
 35
0.0
146
0.0
 13
0.0
 23
0.0
 33
0.0
 16
1.0
 26
0.0
 36
0.0
 17
0.0
 27
1.0
 37
0.0
 76
     0
330
71
  0
LAYOUT
  5
7C
102
{ACAD_REACTORS
330
6A
102
}
330
6A
100
AcDbPlotSettings
  1

  2

  4

  6

 40
0.0
 41
0.0
 42
0.0
 43
0.0
 44
0.0
 45
0.0
 46
0.0
 47
0.0
 48
0.0
 49
0.0
140
0.0
141
0.0
142
1.0
143
1.0
 70
   688
 72
     0
 73
     0
 74
     5
  7

 75
    16
147
1.0
 76
     0
 77
     2
 78
   300
148
0.0
149
0.0
100
AcDbLayout
  1
Layout2
 70
     1
 71
     2
 10
0.0
 20
0.0
 11
12.0
 21
9.0
 12
0.0
 22
0.0
 32
0.0
 14
0.0
 24
0.0
 34
0.0
 15
0.0
 25
0.0
 35
0.0
146
0.0
 13
0.0
 23
0.0
 33
0.0
 16
1.0
 26
0.0
 36
0.0
 17
0.0
 27
1.0
 37
0.0
 76
     0
330
79
  0
LAYOUT
  5
78
102
{ACAD_REACTORS
330
6A
102
}
330
6A
100
AcDbPlotSettings
  1

  2

  4

  6

 40
0.0
 41
0.0
 42
0.0
 43
0.0
 44
0.0
 45
0.0
 46
0.0
 47
0.0
 48
0.0
 49
0.0
140
0.0
141
0.0
142
1.0
143
1.0
 70
  1712
 72
     0
 73
     0
 74
     0
  7

 75
     0
147
1.0
 76
     0
 77
     2
 78
   300
148
0.0
149
0.0
100
AcDbLayout
  1
Model
 70
     1
 71
     0
 10
0.0
 20
0.0
 11
12.0
 21
9.0
 12
0.0
 22
0.0
 32
0.0
 14
0.0
 24
0.0
 34
0.0
 15
0.0
 25
0.0
 35
0.0
146
0.0
 13
0.0
 23
0.0
 33
0.0
 16
1.0
 26
0.0
 36
0.0
 17
0.0
 27
1.0
 37
0.0
 76
     0
330
75
331
5F
  0
MATERIAL
  5
19
102
{ACAD_XDICTIONARY
360
1A
102
}
102
{ACAD_REACTORS
330
10
102
}
330
10
100
AcDbMaterial
  1
ByBlock
 72
     0
 43
0.0208333333333333
 43
0.0
 43
0.0
 43
0.0
 43
0.0
 43
0.0208333333333333
 43
0.0
 43
0.0
 43
0.0
 43
0.0
 43
1.0
 43
0.0
 43
0.0
 43
0.0
 43
0.0
 43
1.0
 77
     0
 47
0.0208333333333333
 47
0.0
 47
0.0
 47
0.0
 47
0.0
 47
0.0208333333333333
 47
0.0
 47
0.0
 47
0.0
 47
0.0
 47
1.0
 47
0.0
 47
0.0
 47
0.0
 47
0.0
 47
1.0
171
     0
 49
0.0208333333333333
 49
0.0
 49
0.0
 49
0.0
 49
0.0
 49
0.0208333333333333
 49
0.0
 49
0.0
 49
0.0
 49
0.0
 49
1.0
 49
0.0
 49
0.0
 49
0.0
 49
0.0
 49
1.0
175
     0
142
0.0208333333333333
142
0.0
142
0.0
142
0.0
142
0.0
142
0.0208333333333333
142
0.0
142
0.0
142
0.0
142
0.0
142
1.0
142
0.0
142
0.0
142
0.0
142
0.0
142
1.0
179
     0
144
0.0208333333333333
144
0.0
144
0.0
144
0.0
144
0.0
144
0.0208333333333333
144
0.0
144
0.0
144
0.0
144
0.0
144
1.0
144
0.0
144
0.0
144
0.0
144
0.0
144
1.0
147
0.0208333333333333
147
0.0
147
0.0
147
0.0
147
0.0
147
0.0208333333333333
147
0.0
147
0.0
147
0.0
147
0.0
147
1.0
147
0.0
147
0.0
147
0.0
147
0.0
147
1.0
  0
MATERIAL
  5
11
102
{ACAD_XDICTIONARY
360
12
102
}
102
{ACAD_REACTORS
330
10
102
}
330
10
100
AcDbMaterial
  1
ByLayer
 72
     0
 43
0.0208333333333333
 43
0.0
 43
0.0
 43
0.0
 43
0.0
 43
0.0208333333333333
 43
0.0
 43
0.0
 43
0.0
 43
0.0
 43
1.0
 43
0.0
 43
0.0
 43
0.0
 43
0.0
 43
1.0
 77
     0
 47
0.0208333333333333
 47
0.0
 47
0.0
 47
0.0
 47
0.0
 47
0.0208333333333333
 47
0.0
 47
0.0
 47
0.0
 47
0.0
 47
1.0
 47
0.0
 47
0.0
 47
0.0
 47
0.0
 47
1.0
171
     0
 49
0.0208333333333333
 49
0.0
 49
0.0
 49
0.0
 49
0.0
 49
0.0208333333333333
 49
0.0
 49
0.0
 49
0.0
 49
0.0
 49
1.0
 49
0.0
 49
0.0
 49
0.0
 49
0.0
 49
1.0
175
     0
142
0.0208333333333333
142
0.0
142
0.0
142
0.0
142
0.0
142
0.0208333333333333
142
0.0
142
0.0
142
0.0
142
0.0
142
1.0
142
0.0
142
0.0
142
0.0
142
0.0
142
1.0
179
     0
144
0.0208333333333333
144
0.0
144
0.0
144
0.0
144
0.0
144
0.0208333333333333
144
0.0
144
0.0
144
0.0
144
0.0
144
1.0
144
0.0
144
0.0
144
0.0
144
0.0
144
1.0
147
0.0208333333333333
147
0.0
147
0.0
147
0.0
147
0.0
147
0.0208333333333333
147
0.0
147
0.0
147
0.0
147
0.0
147
1.0
147
0.0
147
0.0
147
0.0
147
0.0
147
1.0
  0
MATERIAL
  5
21
102
{ACAD_XDICTIONARY
360
22
102
}
102
{ACAD_REACTORS
330
10
102
}
330
10
100
AcDbMaterial
  1
Global
 72
     0
 43
0.0208333333333333
 43
0.0
 43
0.0
 43
0.0
 43
0.0
 43
0.0208333333333333
 43
0.0
 43
0.0
 43
0.0
 43
0.0
 43
1.0
 43
0.0
 43
0.0
 43
0.0
 43
0.0
 43
1.0
 77
     0
 47
0.0208333333333333
 47
0.0
 47
0.0
 47
0.0
 47
0.0
 47
0.0208333333333333
 47
0.0
 47
0.0
 47
0.0
 47
0.0
 47
1.0
 47
0.0
 47
0.0
 47
0.0
 47
0.0
 47
1.0
171
     0
 49
0.0208333333333333
 49
0.0
 49
0.0
 49
0.0
 49
0.0
 49
0.0208333333333333
 49
0.0
 49
0.0
 49
0.0
 49
0.0
 49
1.0
 49
0.0
 49
0.0
 49
0.0
 49
0.0
 49
1.0
175
     0
142
0.0208333333333333
142
0.0
142
0.0
142
0.0
142
0.0
142
0.0208333333333333
142
0.0
142
0.0
142
0.0
142
0.0
142
1.0
142
0.0
142
0.0
142
0.0
142
0.0
142
1.0
179
     0
144
0.0208333333333333
144
0.0
144
0.0
144
0.0
144
0.0
144
0.0208333333333333
144
0.0
144
0.0
144
0.0
144
0.0
144
1.0
144
0.0
144
0.0
144
0.0
144
0.0
144
1.0
147
0.0208333333333333
147
0.0
147
0.0
147
0.0
147
0.0
147
0.0208333333333333
147
0.0
147
0.0
147
0.0
147
0.0
147
1.0
147
0.0
147
0.0
147
0.0
147
0.0
147
1.0
  0
MLEADERSTYLE
  5
6F
102
{ACAD_REACTORS
330
6E
102
}
330
6E
100
AcDbMLeaderStyle
170
     2
171
     1
172
     0
 90
        2
 40
0.0
 41
0.0
173
     1
 91
-1056964608
340
63
 92
       -2
290
     1
 42
0.09
291
     1
 43
0.36
  3
Standard
 44
0.18
300

342
5D
174
     1
178
     6
175
     1
176
     0
 93
-1056964608
 45
0.18
292
     0
297
     0
 46
0.18
 94
-1056964608
 47
1.0
 49
1.0
140
1.0
293
     1
141
0.0
294
     1
177
     0
142
1.0
295
     0
296
     0
143
0.125
1001
ACAD_MLEADERVER
1070
     2
  0
MLINESTYLE
  5
68
102
{ACAD_REACTORS
330
67
102
}
330
67
100
AcDbMlineStyle
  2
STANDARD
 70
     0
  3

 62
   256
 51
90.0
 52
90.0
 71
     2
 49
0.5
 62
   256
  6
BYLAYER
 49
-0.5
 62
   256
  6
BYLAYER
  0
ACDBPLACEHOLDER
  5
F
102
{ACAD_REACTORS
330
E
102
}
330
E
  0
SCALE
  5
3B
102
{ACAD_REACTORS
330
3A
102
}
330
3A
100
AcDbScale
 70
     0
300
1:1
140
1.0
141
1.0
290
     1
  0
SCALE
  5
3C
102
{ACAD_REACTORS
330
3A
102
}
330
3A
100
AcDbScale
 70
     0
300
1:2
140
1.0
141
2.0
290
     0
  0
SCALE
  5
3D
102
{ACAD_REACTORS
330
3A
102
}
330
3A
100
AcDbScale
 70
     0
300
1:4
140
1.0
141
4.0
290
     0
  0
SCALE
  5
3E
102
{ACAD_REACTORS
330
3A
102
}
330
3A
100
AcDbScale
 70
     0
300
1:5
140
1.0
141
5.0
290
     0
  0
SCALE
  5
3F
102
{ACAD_REACTORS
330
3A
102
}
330
3A
100
AcDbScale
 70
     0
300
1:8
140
1.0
141
8.0
290
     0
  0
SCALE
  5
40
102
{ACAD_REACTORS
330
3A
102
}
330
3A
100
AcDbScale
 70
     0
300
1:10
140
1.0
141
10.0
290
     0
  0
SCALE
  5
41
102
{ACAD_REACTORS
330
3A
102
}
330
3A
100
AcDbScale
 70
     0
300
1:16
140
1.0
141
16.0
290
     0
  0
SCALE
  5
42
102
{ACAD_REACTORS
330
3A
102
}
330
3A
100
AcDbScale
 70
     0
300
1:20
140
1.0
141
20.0
290
     0
  0
SCALE
  5
43
102
{ACAD_REACTORS
330
3A
102
}
330
3A
100
AcDbScale
 70
     0
300
1:30
140
1.0
141
30.0
290
     0
  0
SCALE
  5
44
102
{ACAD_REACTORS
330
3A
102
}
330
3A
100
AcDbScale
 70
     0
300
1:40
140
1.0
141
40.0
290
     0
  0
SCALE
  5
45
102
{ACAD_REACTORS
330
3A
102
}
330
3A
100
AcDbScale
 70
     0
300
1:50
140
1.0
141
50.0
290
     0
  0
SCALE
  5
46
102
{ACAD_REACTORS
330
3A
102
}
330
3A
100
AcDbScale
 70
     0
300
1:100
140
1.0
141
100.0
290
     0
  0
SCALE
  5
47
102
{ACAD_REACTORS
330
3A
102
}
330
3A
100
AcDbScale
 70
     0
300
2:1
140
2.0
141
1.0
290
     0
  0
SCALE
  5
48
102
{ACAD_REACTORS
330
3A
102
}
330
3A
100
AcDbScale
 70
     0
300
4:1
140
4.0
141
1.0
290
     0
  0
SCALE
  5
49
102
{ACAD_REACTORS
330
3A
102
}
330
3A
100
AcDbScale
 70
     0
300
8:1
140
8.0
141
1.0
290
     0
  0
SCALE
  5
4A
102
{ACAD_REACTORS
330
3A
102
}
330
3A
100
AcDbScale
 70
     0
300
10:1
140
10.0
141
1.0
290
     0
  0
SCALE
  5
4B
102
{ACAD_REACTORS
330
3A
102
}
330
3A
100
AcDbScale
 70
     0
300
100:1
140
100.0
141
1.0
290
     0
  0
SCALE
  5
4C
102
{ACAD_REACTORS
330
3A
102
}
330
3A
100
AcDbScale
 70
     0
300
1/128" = 1'-0"
140
0.0078125
141
12.0
290
     0
  0
SCALE
  5
4D
102
{ACAD_REACTORS
330
3A
102
}
330
3A
100
AcDbScale
 70
     0
300
1/64" = 1'-0"
140
0.015625
141
12.0
290
     0
  0
SCALE
  5
4E
102
{ACAD_REACTORS
330
3A
102
}
330
3A
100
AcDbScale
 70
     0
300
1/32" = 1'-0"
140
0.03125
141
12.0
290
     0
  0
SCALE
  5
4F
102
{ACAD_REACTORS
330
3A
102
}
330
3A
100
AcDbScale
 70
     0
300
1/16" = 1'-0"
140
0.0625
141
12.0
290
     0
  0
SCALE
  5
50
102
{ACAD_REACTORS
330
3A
102
}
330
3A
100
AcDbScale
 70
     0
300
3/32" = 1'-0"
140
0.09375
141
12.0
290
     0
  0
SCALE
  5
51
102
{ACAD_REACTORS
330
3A
102
}
330
3A
100
AcDbScale
 70
     0
300
1/8" = 1'-0"
140
0.125
141
12.0
290
     0
  0
SCALE
  5
52
102
{ACAD_REACTORS
330
3A
102
}
330
3A
100
AcDbScale
 70
     0
300
3/16" = 1'-0"
140
0.1875
141
12.0
290
     0
  0
SCALE
  5
53
102
{ACAD_REACTORS
330
3A
102
}
330
3A
100
AcDbScale
 70
     0
300
1/4" = 1'-0"
140
0.25
141
12.0
290
     0
  0
SCALE
  5
54
102
{ACAD_REACTORS
330
3A
102
}
330
3A
100
AcDbScale
 70
     0
300
3/8" = 1'-0"
140
0.375
141
12.0
290
     0
  0
SCALE
  5
55
102
{ACAD_REACTORS
330
3A
102
}
330
3A
100
AcDbScale
 70
     0
300
1/2" = 1'-0"
140
0.5
141
12.0
290
     0
  0
SCALE
  5
56
102
{ACAD_REACTORS
330
3A
102
}
330
3A
100
AcDbScale
 70
     0
300
3/4" = 1'-0"
140
0.75
141
12.0
290
     0
  0
SCALE
  5
57
102
{ACAD_REACTORS
330
3A
102
}
330
3A
100
AcDbScale
 70
     0
300
1" = 1'-0"
140
1.0
141
12.0
290
     0
  0
SCALE
  5
58
102
{ACAD_REACTORS
330
3A
102
}
330
3A
100
AcDbScale
 70
     0
300
1-1/2" = 1'-0"
140
1.5
141
12.0
290
     0
  0
SCALE
  5
59
102
{ACAD_REACTORS
330
3A
102
}
330
3A
100
AcDbScale
 70
     0
300
3" = 1'-0"
140
3.0
141
12.0
290
     0
  0
SCALE
  5
5A
102
{ACAD_REACTORS
330
3A
102
}
330
3A
100
AcDbScale
 70
     0
300
6" = 1'-0"
140
6.0
141
12.0
290
     0
  0
SCALE
  5
5B
102
{ACAD_REACTORS
330
3A
102
}
330
3A
100
AcDbScale
 70
     0
300
1'-0" = 1'-0"
140
12.0
141
12.0
290
     0
  0
TABLESTYLE
  5
6D
102
{ACAD_XDICTIONARY
360
D53
102
}
102
{ACAD_REACTORS
330
6C
102
}
330
6C
100
AcDbTableStyle
  3
Standard
 70
     0
 71
     0
 40
0.06
 41
0.06
280
     0
281
     0
  7
Standard
140
0.18
170
     2
 62
     0
 63
     7
283
     0
274
    -2
284
     1
 64
     0
275
    -2
285
     1
 65
     0
276
    -2
286
     1
 66
     0
277
    -2
287
     1
 67
     0
278
    -2
288
     1
 68
     0
279
    -2
289
     1
 69
     0
  7
Standard
140
0.25
170
     5
 62
     0
 63
     7
283
     0
274
    -2
284
     1
 64
     0
275
    -2
285
     1
 65
     0
276
    -2
286
     1
 66
     0
277
    -2
287
     1
 67
     0
278
    -2
288
     1
 68
     0
279
    -2
289
     1
 69
     0
  7
Standard
140
0.18
170
     5
 62
     0
 63
     7
283
     0
274
    -2
284
     1
 64
     0
275
    -2
285
     1
 65
     0
276
    -2
286
     1
 66
     0
277
    -2
287
     1
 67
     0
278
    -2
288
     1
 68
     0
279
    -2
289
     1
 69
     0
  0
VISUALSTYLE
  5
2F
102
{ACAD_REACTORS
330
29
102
}
330
29
100
AcDbVisualStyle
  2
2dWireframe
 70
     4
 71
     0
 72
     2
 73
     0
 90
        0
 40
-0.6
 41
-30.0
 62
     5
 63
     7
421
 16777215
 74
     1
 91
        4
 64
     7
 65
   257
 75
     1
175
     1
 42
1.0
 92
        0
 66
   257
 43
1.0
 76
     1
 77
     6
 78
     2
 67
     7
 79
     5
170
     0
171
     0
290
     0
174
     0
 93
        1
 44
0.0
173
     0
291
     0
 45
0.0
1001
ACAD
1000
AcDbSavedByObjectVersion
1070
     0
1000
AcDbSavedByObjectVersion
1070
     0
1000
AcDbSavedByObjectVersion
1070
     0
  0
VISUALSTYLE
  5
31
102
{ACAD_REACTORS
330
29
102
}
330
29
100
AcDbVisualStyle
  2
3D Hidden
 70
     6
 71
     1
 72
     2
 73
     2
 90
        0
 40
-0.6
 41
-30.0
 62
     5
 63
     7
421
 16777215
 74
     2
 91
        2
 64
     7
 65
   257
 75
     2
175
     1
 42
40.0
 92
        0
 66
   257
 43
1.0
 76
     1
 77
     6
 78
     2
 67
     7
 79
     3
170
     0
171
     0
290
     0
174
     0
 93
        1
 44
0.0
173
     0
291
     0
 45
0.0
1001
ACAD
1000
AcDbSavedByObjectVersion
1070
     0
1000
AcDbSavedByObjectVersion
1070
     0
1000
AcDbSavedByObjectVersion
1070
     0
  0
VISUALSTYLE
  5
30
102
{ACAD_REACTORS
330
29
102
}
330
29
100
AcDbVisualStyle
  2
3dWireframe
 70
     5
 71
     0
 72
     2
 73
     0
 90
        0
 40
-0.6
 41
-30.0
 62
     5
 63
     7
421
 16777215
 74
     1
 91
        4
 64
     7
 65
   257
 75
     1
175
     1
 42
1.0
 92
        0
 66
   257
 43
1.0
 76
     1
 77
     6
 78
     2
 67
     7
 79
     5
170
     0
171
     0
290
     0
174
     0
 93
        1
 44
0.0
173
     0
291
     0
 45
0.0
1001
ACAD
1000
AcDbSavedByObjectVersion
1070
     0
1000
AcDbSavedByObjectVersion
1070
     0
1000
AcDbSavedByObjectVersion
1070
     0
  0
VISUALSTYLE
  5
2E
102
{ACAD_REACTORS
330
29
102
}
330
29
100
AcDbVisualStyle
  2
Basic
 70
     7
 71
     1
 72
     0
 73
     1
 90
        0
 40
-0.6
 41
-30.0
 62
     5
 63
     7
421
 16777215
 74
     0
 91
        4
 64
     7
 65
   257
 75
     1
175
     1
 42
1.0
 92
        8
 66
     7
 43
1.0
 76
     1
 77
     6
 78
     2
 67
     7
 79
     5
170
     0
171
     0
290
     0
174
     0
 93
        1
 44
0.0
173
     0
291
     1
 45
0.0
1001
ACAD
1000
AcDbSavedByObjectVersion
1070
     0
1000
AcDbSavedByObjectVersion
1070
     0
1000
AcDbSavedByObjectVersion
1070
     0
  0
VISUALSTYLE
  5
35
102
{ACAD_REACTORS
330
29
102
}
330
29
100
AcDbVisualStyle
  2
Brighten
 70
    12
 71
     2
 72
     2
 73
     0
 90
        0
 40
-0.6
 41
-30.0
 62
     5
 63
     7
421
 16777215
 74
     1
 91
        4
 64
     7
 65
   257
 75
     1
175
     1
 42
1.0
 92
        8
 66
     7
 43
1.0
 76
     1
 77
     6
 78
     2
 67
     7
 79
     5
170
     0
171
     0
290
     0
174
     0
 93
        1
 44
50.0
173
     0
291
     1
 45
0.0
1001
ACAD
1000
AcDbSavedByObjectVersion
1070
     0
1000
AcDbSavedByObjectVersion
1070
     0
1000
AcDbSavedByObjectVersion
1070
     0
  0
VISUALSTYLE
  5
39
102
{ACAD_REACTORS
330
29
102
}
330
29
100
AcDbVisualStyle
  2
ColorChange
 70
    16
 71
     2
 72
     2
 73
     3
 90
        0
 40
-0.6
 41
-30.0
 62
     5
 63
     8
421
  8421504
 74
     1
 91
        4
 64
     7
 65
   257
 75
     1
175
     1
 42
1.0
 92
        8
 66
     8
424
  8421504
 43
1.0
 76
     1
 77
     6
 78
     2
 67
     7
 79
     5
170
     0
171
     0
290
     0
174
     0
 93
        1
 44
0.0
173
     0
291
     1
 45
0.0
1001
ACAD
1000
AcDbSavedByObjectVersion
1070
     0
1000
AcDbSavedByObjectVersion
1070
     0
1000
AcDbSavedByObjectVersion
1070
     0
  0
VISUALSTYLE
  5
32
102
{ACAD_REACTORS
330
29
102
}
330
29
100
AcDbVisualStyle
  2
Conceptual
 70
     9
 71
     3
 72
     2
 73
     0
 90
        0
 40
-0.6
 41
-30.0
 62
     5
 63
     7
421
 16777215
 74
     2
 91
        2
 64
     7
 65
   257
 75
     1
175
     1
 42
40.0
 92
        8
 66
     7
 43
1.0
 76
     1
 77
     6
 78
     2
 67
     7
 79
     3
170
     0
171
     0
290
     0
174
     0
 93
        1
 44
0.0
173
     0
291
     0
 45
0.0
1001
ACAD
1000
AcDbSavedByObjectVersion
1070
     0
1000
AcDbSavedByObjectVersion
1070
     0
1000
AcDbSavedByObjectVersion
1070
     0
  0
VISUALSTYLE
  5
34
102
{ACAD_REACTORS
330
29
102
}
330
29
100
AcDbVisualStyle
  2
Dim
 70
    11
 71
     2
 72
     2
 73
     0
 90
        0
 40
-0.6
 41
-30.0
 62
     5
 63
     7
421
 16777215
 74
     1
 91
        4
 64
     7
 65
   257
 75
     1
175
     1
 42
1.0
 92
        8
 66
     7
 43
1.0
 76
     1
 77
     6
 78
     2
 67
     7
 79
     5
170
     0
171
     0
290
     0
174
     0
 93
        1
 44
-50.0
173
     0
291
     1
 45
0.0
1001
ACAD
1000
AcDbSavedByObjectVersion
1070
     0
1000
AcDbSavedByObjectVersion
1070
     0
1000
AcDbSavedByObjectVersion
1070
     0
  0
VISUALSTYLE
  5
38
102
{ACAD_REACTORS
330
29
102
}
330
29
100
AcDbVisualStyle
  2
Facepattern
 70
    15
 71
     2
 72
     2
 73
     0
 90
        0
 40
-0.6
 41
-30.0
 62
     5
 63
     7
421
 16777215
 74
     1
 91
        4
 64
     7
 65
   257
 75
     1
175
     1
 42
1.0
 92
        8
 66
     7
 43
1.0
 76
     1
 77
     6
 78
     2
 67
     7
 79
     5
170
     0
171
     0
290
     0
174
     0
 93
        1
 44
0.0
173
     0
291
     1
 45
0.0
1001
ACAD
1000
AcDbSavedByObjectVersion
1070
     0
1000
AcDbSavedByObjectVersion
1070
     0
1000
AcDbSavedByObjectVersion
1070
     0
  0
VISUALSTYLE
  5
2A
102
{ACAD_REACTORS
330
29
102
}
330
29
100
AcDbVisualStyle
  2
Flat
 70
     0
 71
     2
 72
     1
 73
     1
 90
        2
 40
-0.6
 41
30.0
 62
     5
 63
     7
421
 16777215
 74
     0
 91
        4
 64
     7
 65
   257
 75
     1
175
     1
 42
1.0
 92
        8
 66
     7
 43
1.0
 76
     1
 77
     6
 78
     2
 67
     7
 79
     5
170
     0
171
     0
290
     0
174
     0
 93
       13
 44
0.0
173
     0
291
     1
 45
0.0
1001
ACAD
1000
AcDbSavedByObjectVersion
1070
     0
1000
AcDbSavedByObjectVersion
1070
     0
1000
AcDbSavedByObjectVersion
1070
     0
  0
VISUALSTYLE
  5
2B
102
{ACAD_REACTORS
330
29
102
}
330
29
100
AcDbVisualStyle
  2
FlatWithEdges
 70
     1
 71
     2
 72
     1
 73
     1
 90
        2
 40
-0.6
 41
30.0
 62
     5
 63
     7
421
 16777215
 74
     1
 91
        4
 64
     7
 65
   257
 75
     1
175
     1
 42
1.0
 92
        0
 66
   257
 43
1.0
 76
     1
 77
     6
 78
     2
 67
     7
 79
     5
170
     0
171
     0
290
     0
174
     0
 93
       13
 44
0.0
173
     0
291
     1
 45
0.0
1001
ACAD
1000
AcDbSavedByObjectVersion
1070
     0
1000
AcDbSavedByObjectVersion
1070
     0
1000
AcDbSavedByObjectVersion
1070
     0
  0
VISUALSTYLE
  5
2C
102
{ACAD_REACTORS
330
29
102
}
330
29
100
AcDbVisualStyle
  2
Gouraud
 70
     2
 71
     2
 72
     2
 73
     1
 90
        2
 40
-0.6
 41
30.0
 62
     5
 63
     7
421
 16777215
 74
     0
 91
        4
 64
     7
 65
   257
 75
     1
175
     1
 42
1.0
 92
        0
 66
     7
 43
1.0
 76
     1
 77
     6
 78
     2
 67
     7
 79
     5
170
     0
171
     0
290
     0
174
     0
 93
       13
 44
0.0
173
     0
291
     1
 45
0.0
1001
ACAD
1000
AcDbSavedByObjectVersion
1070
     0
1000
AcDbSavedByObjectVersion
1070
     0
1000
AcDbSavedByObjectVersion
1070
     0
  0
VISUALSTYLE
  5
2D
102
{ACAD_REACTORS
330
29
102
}
330
29
100
AcDbVisualStyle
  2
GouraudWithEdges
 70
     3
 71
     2
 72
     2
 73
     1
 90
        2
 40
-0.6
 41
30.0
 62
     5
 63
     7
421
 16777215
 74
     1
 91
        4
 64
     7
 65
   257
 75
     1
175
     1
 42
1.0
 92
        0
 66
   257
 43
1.0
 76
     1
 77
     6
 78
     2
 67
     7
 79
     5
170
     0
171
     0
290
     0
174
     0
 93
       13
 44
0.0
173
     0
291
     1
 45
0.0
1001
ACAD
1000
AcDbSavedByObjectVersion
1070
     0
1000
AcDbSavedByObjectVersion
1070
     0
1000
AcDbSavedByObjectVersion
1070
     0
  0
VISUALSTYLE
  5
37
102
{ACAD_REACTORS
330
29
102
}
330
29
100
AcDbVisualStyle
  2
Linepattern
 70
    14
 71
     2
 72
     2
 73
     0
 90
        0
 40
-0.6
 41
-30.0
 62
     5
 63
     7
421
 16777215
 74
     1
 91
        4
 64
     7
 65
   257
 75
     7
175
     7
 42
1.0
 92
        8
 66
     7
 43
1.0
 76
     1
 77
     6
 78
     2
 67
     7
 79
     5
170
     0
171
     0
290
     0
174
     0
 93
        1
 44
0.0
173
     0
291
     1
 45
0.0
1001
ACAD
1000
AcDbSavedByObjectVersion
1070
     0
1000
AcDbSavedByObjectVersion
1070
     0
1000
AcDbSavedByObjectVersion
1070
     0
  0
VISUALSTYLE
  5
33
102
{ACAD_REACTORS
330
29
102
}
330
29
100
AcDbVisualStyle
  2
Realistic
 70
     8
 71
     2
 72
     2
 73
     0
 90
        0
 40
-0.6
 41
-30.0
 62
     5
 63
     7
421
 16777215
 74
     1
 91
        0
 64
     7
 65
   257
 75
     1
175
     1
 42
1.0
 92
        8
 66
     8
424
  7895160
 43
1.0
 76
     1
 77
     6
 78
     2
 67
     7
 79
     5
170
     0
171
     0
290
     0
174
     0
 93
       13
 44
0.0
173
     0
291
     0
 45
0.0
1001
ACAD
1000
AcDbSavedByObjectVersion
1070
     0
1000
AcDbSavedByObjectVersion
1070
     0
1000
AcDbSavedByObjectVersion
1070
     0
  0
VISUALSTYLE
  5
36
102
{ACAD_REACTORS
330
29
102
}
330
29
100
AcDbVisualStyle
  2
Thicken
 70
    13
 71
     2
 72
     2
 73
     0
 90
        0
 40
-0.6
 41
-30.0
 62
     5
 63
     7
421
 16777215
 74
     1
 91
        4
 64
     7
 65
   257
 75
     1
175
     1
 42
1.0
 92
       12
 66
     7
 43
1.0
 76
     1
 77
     6
 78
     2
 67
     7
 79
     5
170
     0
171
     0
290
     0
174
     0
 93
        1
 44
0.0
173
     0
291
     1
 45
0.0
1001
ACAD
1000
AcDbSavedByObjectVersion
1070
     0
1000
AcDbSavedByObjectVersion
1070
     0
1000
AcDbSavedByObjectVersion
1070
     0
  0
DICTIONARYVAR
  5
D51
102
{ACAD_REACTORS
330
D4D
102
}
330
D4D
100
DictionaryVariables
280
     0
  1
1:1
  0
DICTIONARYVAR
  5
D4F
102
{ACAD_REACTORS
330
D4D
102
}
330
D4D
100
DictionaryVariables
280
     0
  1
STANDARD
  0
DICTIONARYVAR
  5
D4E
102
{ACAD_REACTORS
330
D4D
102
}
330
D4D
100
DictionaryVariables
280
     0
  1
STANDARD
  0
DICTIONARYVAR
  5
D52
102
{ACAD_REACTORS
330
D4D
102
}
330
D4D
100
DictionaryVariables
280
     0
  1
2
  0
DICTIONARYVAR
  5
D50
102
{ACAD_REACTORS
330
D4D
102
}
330
D4D
100
DictionaryVariables
280
     0
  1
1
  0
DICTIONARY
  5
DE0
102
{ACAD_REACTORS
330
DD5
102
}
330
DD5
100
AcDbDictionary
281
     1
  0
XRECORD
  5
E04
102
{ACAD_REACTORS
330
DD5
102
}
330
DD5
100
AcDbXrecord
280
     1
 90
-1023410169
  0
DICTIONARY
  5
1A
330
19
100
AcDbDictionary
280
     1
281
     1
  3
ACAD_XREC_ROUNDTRIP
360
D57
  3
BUMPTILE
360
1C
  3
DIFFUSETILE
360
1B
  3
OPACITYTILE
360
1F
  3
REFLECTIONTILE
360
1E
  3
REFRACTIONTILE
360
20
  3
SPECULARTILE
360
1D
  0
DICTIONARY
  5
12
330
11
100
AcDbDictionary
280
     1
281
     1
  3
ACAD_XREC_ROUNDTRIP
360
D56
  3
BUMPTILE
360
14
  3
DIFFUSETILE
360
13
  3
OPACITYTILE
360
17
  3
REFLECTIONTILE
360
16
  3
REFRACTIONTILE
360
18
  3
SPECULARTILE
360
15
  0
DICTIONARY
  5
22
330
21
100
AcDbDictionary
280
     1
281
     1
  3
ACAD_XREC_ROUNDTRIP
360
D58
  3
BUMPTILE
360
24
  3
DIFFUSETILE
360
23
  3
OPACITYTILE
360
27
  3
REFLECTIONTILE
360
26
  3
REFRACTIONTILE
360
28
  3
SPECULARTILE
360
25
  0
DICTIONARY
  5
D53
330
6D
100
AcDbDictionary
280
     1
281
     1
  3
ACAD_ROUNDTRIP_2008_TABLESTYLE_CELLSTYLEMAP
360
D54
  3
ACAD_XREC_ROUNDTRIP
360
EE8
  0
XRECORD
  5
D57
102
{ACAD_REACTORS
330
1A
102
}
330
1A
100
AcDbXrecord
280
     1
102
MATERIAL
148
0.0
149
0.0
149
0.0
 93
        0
 94
       63
282
     0
 72
     0
 77
     0
171
     0
175
     0
179
     0
273
     0
  0
XRECORD
  5
1C
102
{ACAD_REACTORS
330
1A
102
}
330
1A
100
AcDbXrecord
280
     1
270
     1
271
     1
  0
XRECORD
  5
1B
102
{ACAD_REACTORS
330
1A
102
}
330
1A
100
AcDbXrecord
280
     1
270
     1
271
     1
  0
XRECORD
  5
1F
102
{ACAD_REACTORS
330
1A
102
}
330
1A
100
AcDbXrecord
280
     1
270
     1
271
     1
  0
XRECORD
  5
1E
102
{ACAD_REACTORS
330
1A
102
}
330
1A
100
AcDbXrecord
280
     1
270
     1
271
     1
  0
XRECORD
  5
20
102
{ACAD_REACTORS
330
1A
102
}
330
1A
100
AcDbXrecord
280
     1
270
     1
271
     1
  0
XRECORD
  5
1D
102
{ACAD_REACTORS
330
1A
102
}
330
1A
100
AcDbXrecord
280
     1
270
     1
271
     1
  0
XRECORD
  5
D56
102
{ACAD_REACTORS
330
12
102
}
330
12
100
AcDbXrecord
280
     1
102
MATERIAL
148
0.0
149
0.0
149
0.0
 93
        0
 94
       63
282
     0
 72
     0
 77
     0
171
     0
175
     0
179
     0
273
     0
  0
XRECORD
  5
14
102
{ACAD_REACTORS
330
12
102
}
330
12
100
AcDbXrecord
280
     1
270
     1
271
     1
  0
XRECORD
  5
13
102
{ACAD_REACTORS
330
12
102
}
330
12
100
AcDbXrecord
280
     1
270
     1
271
     1
  0
XRECORD
  5
17
102
{ACAD_REACTORS
330
12
102
}
330
12
100
AcDbXrecord
280
     1
270
     1
271
     1
  0
XRECORD
  5
16
102
{ACAD_REACTORS
330
12
102
}
330
12
100
AcDbXrecord
280
     1
270
     1
271
     1
  0
XRECORD
  5
18
102
{ACAD_REACTORS
330
12
102
}
330
12
100
AcDbXrecord
280
     1
270
     1
271
     1
  0
XRECORD
  5
15
102
{ACAD_REACTORS
330
12
102
}
330
12
100
AcDbXrecord
280
     1
270
     1
271
     1
  0
XRECORD
  5
D58
102
{ACAD_REACTORS
330
22
102
}
330
22
100
AcDbXrecord
280
     1
102
MATERIAL
148
0.0
149
0.0
149
0.0
 93
        0
 94
       63
282
     0
 72
     0
 77
     0
171
     0
175
     0
179
     0
273
     0
  0
XRECORD
  5
24
102
{ACAD_REACTORS
330
22
102
}
330
22
100
AcDbXrecord
280
     1
270
     1
271
     1
  0
XRECORD
  5
23
102
{ACAD_REACTORS
330
22
102
}
330
22
100
AcDbXrecord
280
     1
270
     1
271
     1
  0
XRECORD
  5
27
102
{ACAD_REACTORS
330
22
102
}
330
22
100
AcDbXrecord
280
     1
270
     1
271
     1
  0
XRECORD
  5
26
102
{ACAD_REACTORS
330
22
102
}
330
22
100
AcDbXrecord
280
     1
270
     1
271
     1
  0
XRECORD
  5
28
102
{ACAD_REACTORS
330
22
102
}
330
22
100
AcDbXrecord
280
     1
270
     1
271
     1
  0
XRECORD
  5
25
102
{ACAD_REACTORS
330
22
102
}
330
22
100
AcDbXrecord
280
     1
270
     1
271
     1
  0
CELLSTYLEMAP
  5
D54
102
{ACAD_REACTORS
330
D53
102
}
330
D53
100
AcDbCellStyleMap
 90
        3
300
CELLSTYLE
  1
TABLEFORMAT_BEGIN
 90
        5
170
     1
 91
        0
 92
    32768
 62
   257
 93
        1
300
CONTENTFORMAT
  1
CONTENTFORMAT_BEGIN
 90
        0
 91
        0
 92
      512
 93
        0
300

 40
0.0
140
1.0
 94
        5
 62
     0
340
5D
144
0.25
309
CONTENTFORMAT_END
171
     0
 94
        0
309
TABLEFORMAT_END
  1
CELLSTYLE_BEGIN
 90
        1
 91
        1
300
_TITLE
309
CELLSTYLE_END
300
CELLSTYLE
  1
TABLEFORMAT_BEGIN
 90
        5
170
     1
 91
        0
 92
        0
 62
   257
 93
        1
300
CONTENTFORMAT
  1
CONTENTFORMAT_BEGIN
 90
        0
 91
        0
 92
      512
 93
        0
300

 40
0.0
140
1.0
 94
        5
 62
     0
340
5D
144
0.18
309
CONTENTFORMAT_END
171
     0
 94
        0
309
TABLEFORMAT_END
  1
CELLSTYLE_BEGIN
 90
        2
 91
        1
300
_HEADER
309
CELLSTYLE_END
300
CELLSTYLE
  1
TABLEFORMAT_BEGIN
 90
        5
170
     1
 91
        0
 92
        0
 62
   257
 93
        1
300
CONTENTFORMAT
  1
CONTENTFORMAT_BEGIN
 90
        0
 91
        0
 92
      512
 93
        0
300

 40
0.0
140
1.0
 94
        2
 62
     0
340
5D
144
0.18
309
CONTENTFORMAT_END
171
     0
 94
        0
309
TABLEFORMAT_END
  1
CELLSTYLE_BEGIN
 90
        3
 91
        2
300
_DATA
309
CELLSTYLE_END
  0
XRECORD
  5
EE8
102
{ACAD_REACTORS
330
D53
102
}
330
D53
100
AcDbXrecord
280
     1
102
ACAD_ROUNDTRIP_PRE2007_TABLESTYLE
 90
      512
 91
        0
  1

 92
      512
 93
        0
  2

 94
      512
 95
        0
  3

  0
ENDSEC
  0
EOF
